Soberano

Acordes de la canción 'Soberano' de Hillsong United

Versiones de esta canción: Tablatura para guitarra (TAB) - Letra y acordes - Letra y acordes - Tablatura para guitarra (TAB)

Hola a todos, a continuacion les dejo la tablatura de la version
acustica de "Soberano"que esta en
http://www.youtube.com/watch?v=JnxOmS0zrN4
espero les guste y les sirva

Intro: uso la tecnica de tocar 3 cuerdas a la vez seguido de un pequeño arpegio

 C    Csus4          Am7   Am13 Am7   Am13
[-----8--]          [----3----------8--]
[-5-----6]          [-5----6-----5----6]
[-0------] 2 veces, [-5----------5-----] se repite
[--------] luego    [------------------] todo
[--------]          [-0----------0-----]
[-8------]          [------------------]


Verso: uso las mismas notas del intro en C Csus4,
y en la parte de Am7 Am13 va asi:

                                                        Am    Am13 Am7
[----3--]                                              [---3---------3--]
[-5----6]                                              [-5----6----5---5]
[-5-----] 2 veces, luego se repite el verso, y en      [-5---------5----]
[-------]        la ultima parte del verso va asi:     [----------------]
[-0-----]                                              [-0-------0------]
[-------]                                              [----------------]

Pre-coro: aqui ahora va arpegiado pero mas rapido

 Dm           F          C           G6
[-----1-----------1-----------0-----------0-----]
[--------------------------------1--------------]
[-------3-----------1----------------------3----]
[---2-----2-----2-----2----0-------0----0-----0-]
[-0-----------3---------------------------------]
[------------------------3----------------------]
[-------------------------------------3---------]

 Dm                  F
[----------1----------------------1-----------]
[-----3----------3-----------1----------1-----]
[---2---2----2-----2-------2---2----2-----2---]
[-0------0-----0-----0---3------3-----3-----3-]
[---------------------------------------------]
[---------------------------------------------]



Coro (arpegiado)

  G                          Dm
[------------3--------------------------1-----------]
[-----3-------------3-------------3------------3----]
[---0---0------0------0---------2---2-----2------2--]
[---------0-------0-----0----0--------0-----0------0]
[---------------------------------------------------]
[-3-------------------------------------------------]


 Fmaj7                      C
[------------0-------------------------0------------]
[-----1------------1------------1------------1------] se repite, y en la parte
[---2---2------2-----2--------0---0------0-----0----] final de coro hago esto:
[-3-------3------3-----3------------2------2-----2--]
[---------------------------3-----------------------]
[-------------------------------------------------- ]

  C
[------------0---]
[-----1--------1-]
[---0---0--------]
[---------2------]
[-3--------------]
[----------------]

luego viene el verso 2 pero ahora rasgueado. estos son 2 acordes que quizas no
conozcan y que uso ahi:

Csus4    Am13
[-0-]   [-0-]
[-1-]   [-1-]
[-0-]   [-0-]
[-3-]   [-3-]
[-3-]   [-0-]
[-x-]   [-x-]

y los acordes del verso 2 van asi:  // C Csus4 C Csus4 Am7 Am13 Am7 Am13 //
nota: notaran que el Csus4 y el Am13 entran antes de tiempo, osea,
son notas sincopadas,mucho ojo ahi para poder hacerlo bien

Pre-coro (rasgueado): Dm F C G Dm F

Coro (rasgueado): G Dm Fmaj7 C --] 4 veces


Intermedio: igual que el Intro, pero solo haces C Csus4 (3 veces)

Verso 3: igual que en el verso 1, pero solo haces C Csus4 (5 veces)
y luego la ultima parte del verso uno (Am7 Am13 Am7)

pre-coro (rasgueado)
coro (rasgueado)--] 2 veces

outro: A Capella (solo voz)

comentar es agradecer, y para mi mas el compartirlo.
Gracias y que Dios les bendiga
Saludos desde La Ceiba, Honduras
Versión 2 - Soberano (Letra y acordes)
Soberano

Verso I:
C  Csus4  Am
Manos que
       F/A         Am9
Fueron clavadas por mi
C  Csus4  Am
Heridas que
          F/A         Am9
Hablan de tu inmenso amor

Pre coro:
Dm   F        C       G     Dm
Por eso te llamo mi Cristo
            F
Por eso te canto

Coro:
G           Dm
Dios del universo
           F
Salvador eterno
             C           G
Rey de toda la creación
           Dm
Redentor divino
             F
Dios a ti me rindo
         C
Gloria te doy

Verso II:
C  Csus4  Am
Santo Dios
       F/A         Am9
Tu plan soberano es
C  Csus4  Am
Al enviar
       F/A         Am9
Tu hijo a la humanidad

Pre coro:
Dm   F        C       G     Dm
Por eso te llamo mi Cristo
            F
Por eso te canto

Coro:
G           Dm
Dios del universo
           F
Salvador eterno
             C           G
Rey de toda la creación
           Dm
Redentor divino
             F
Dios a ti me rindo
         C
Gloria te doy
G      Dm     F      C
Santo, Santo, Santo Dios
G      Dm     F      C
Santo, Santo, Santo Dios

Verso III:
C  Csus4  Am
Manos que
       F/A         Am9
Se entregaron por amor
C  Csus4  Am
Lo que soy
       F/A         Am9
Siempre te dare Señor

Pre coro:
Dm   F        C       G     Dm
Por eso te llamo mi Cristo
            F
Por eso te canto

Coro:2X
G           Dm
Dios del universo
           F
Salvador eterno
             C           G
Rey de toda la creación
           Dm
Redentor divino
             F
Dios a ti me rindo
         C
Gloria te doy
G      Dm     F      C
Santo, Santo, Santo Dios
G      Dm     F      C
Santo, Santo, Santo Dios
Versión 3 - Soberano (Letra y acordes)
#### Capo en el 3er traste #####

### Acordes ####

Csus2     : x35533
G         : 355433
Am7(add4) : x77533
Fadd2     : 333563

Intro :  Csus2 - Am7(add4)

Estribillo 1:

Csus2          Am7(add4)
     Manos que          fueron clavadas por mí.
Csus2           Am7(add4)
     Heridas que        hablan de tu inmenso amor.

FAdd2     Am7(add4)    Csus2
     Por  eso     te   llamo mi Cristo,

FAdd2     Am7(add4)    FAdd2
     Por eso       te canto.


##(Coro)##

  G            Am7(add4)           FAdd2
    Dios del   universo, salvador eterno,

               Csus2
   rey de toda  la    creación.

G            Am7(add4)              FAdd2
  Redentor divino,    Dios a ti me rindo,

         Csus2
(La) gloria te doy.

Estribillo 2:

Csus2            Am7(add4)
      Santo Dios,          plan soberano es,
Csus2            Am7(add4)
       el enviar           tu hijo por la humanidad.

###(Puente)###

   G     Am7(add4)  FAdd2        Csus2
//Santo,     santo,     santo     Dios//

Estribillo 3 :

Csus2         Am7(add4)
     Manos que    se entregaron por amor,
Csus2         Am7(add4)
      lo que      soy siempre te daré, Señor.



Espero que les sea de bendición, bueno preferiblemente tóquenla con el
 capo suena mejor.Saludos a la MAFIA donde entra y nadie sale por que
 su amor el amor de Jesus los toma bueno oren por nuestro grupo y saludos
Jhon y Raul mis patas del alma a los demas chicos
y todas las  chicas.
Cualquier duda o corrección escríbame a
emanuel_benjamín@hotmail.com
Versión 4 - Soberano (Tablatura para guitarra (TAB))
Tabs de la intro, tonos y tabs del resto de la canción.
Espero que les guste y les ayude.
Liraplayer (angelin_050@hotmail.com)

Introducción (C,C,C,C, - C,C,Am,Am)

e------8----------8-----------------------8-------------
B----------------------------8--------------------------
G---9----10----9----10----9-----10-----9----10----------
D-------------------------------------------------------
A-------------------------------------------------------
E---8----------8----------8------------8----------------

e-----8----------8-----------------------8--------------
B----------------------------8--------------------------
G--9----10----9----10-----9-----10----9----10-----------
D-------------------------------------------------------
A-------------------------0-----------0-----------------
E--8----------8-----------------------------------------

Tabs 1er estrofa: (Tonos C, Am7, C, Am7) (Manos que fueron
clavadas Por mi, Heridas que hablan de tu inmenso amor)

e-----8----------8-----------8---------------------------
B---------------------------------------8----------------
G--9----10----9----10-----9----10----9-------------------
D-----------------------------------------10-------------
A-------------------------0----------0-------------------
E--8----------8------------------------------------------

e-----8----------8---------------------------------------
B----------------------------8------------8--------------
G--9----10----9----10-----9-----10----9------------------
D-------------------------------------------10-----------
A-------------------------0-----------0------------------
E--8----------8------------------------------------------

Coro
Dm  F       C         G    Dm            F    G
Por eso te llamo mi Cristo, por eso te canto
G           Dm               F                   C          G
Dios del universo Salvador eterno  Rey de toda la creación
G          Dm                 F              C
Redentor divino Dios a ti me rindo gloria te doy

Tabs 2da estrofa: (Tonos: C, Am7, C, Am7) (Santo Dios, gran
Soberano es, Al enviar tu hijo por la humanidad)

e-----8-----------8--------------------------------------
B-----------------------------8-----------8--------------
G--9-----10----9----10----9-----10----9------------------
D--------------------------------------------10----------
A-------------------------0-----------0------------------
E--8-----------8-----------------------------------------

e-------8---------8--------------------------------------
B-----------------------------8------------8-------------
G--9-----10----9----10-----9-----10----9-----------------
D--------------------------------------------10----------
A--------------------------0-----------0-----------------
E--8-----------8-----------------------------------------

(Coro x 1)  (Por eso te amo… Dios del Universo…)
            G        Dm       F      C
Puente: // Santo,   Santo,   Santo Dios //
B-----------8----------------------

Tabs 3era estrofa: Tonos:(C, C, C, Am7) (Manos que se
Se entregaron por amor, Lo que soy siempre te daré Señor)

e-----8----------8----------------------8----------------
B---------------------------8----------------------------
G--9----10----9----10----9----10----9-----10-------------
D--------------------------------------------------------
A--------------------------------------------------------
E--8----------8----------8----------8--------------------

e-----8----------8---------------------------------------
B----------------------------8------------8--------------
G--9----10----9----10----9------10----9------------------
D-------------------------------------------10-----------
A-------------------------------------0------------------
E--8----------8----------8-------------------------------

Coro x 1

Coro y Puente combinados x 1
B----------12----s13----------------

Puente x 1

El material contenido en esta página es para exclusivo uso privado y con propósito meramente educativo, se prohibe su reproducción y uso con fines comerciales