Run

Acordes de la canción 'Run' de Hillsong United

Versiones de esta canción: Tablatura para guitarra (TAB) - Letra y acordes

INTRO: Eb-B-F#-C#(Esta secuencia de acordes van en la I Estrofa,
                  Se le añade B para entrar en el CORO)

e--------------------------------------------
B--11-11-11-11-9-11-12-11-11-7-7-9-9-6-6-----
G--------------------------------------------
D--------------------------------------------
A--------------------------------------------
E--------------------------------------------


e--------------------------------------------
B--11-11-11-11-9-11-12-11-11-7-7-14-14-14-14-
G--------------------------------------------
D--------------------------------------------
A--------------------------------------------
E--------------------------------------------


CORO: F#-C#-Eb-B


e----------------------------------------
B----7-6-------7-6-----7-6-------7-6-----
G--6-----6-6-6-----6-6-----6-6-6---------
D----------------------------------------
A----------------------------------------
E----------------------------------------

e----------------------------------------
B-----7-6--------7-6-----7-6-------7-6---
G-6-6-----6-6-6------6-6-----6-6-6-----6-
D----------------------------------------
A----------------------------------------
E----------------------------------------


INTERMEDIO:


e--------------------------------------------
B--14-14-14-14-14-12-12-12-12-11-11-11-12-12-
G--------------------------------------------(Esto se hace muy rápido)
D--------------------------------------------
A--------------------------------------------
E--------------------------------------------


e--------------------------------------------
B--11-11-11-11-9-11-12-11-11-7-7-9-9-6-6-----
G--------------------------------------------
D--------------------------------------------
A--------------------------------------------
E--------------------------------------------


e-----------------------------------------------
B--11-11-11-11-9-11-12-11-11-7-7-14-14-14-14-12~
G-----------------------------------------------
D-----------------------------------------------
A-----------------------------------------------
E-----------------------------------------------



FINAL: D#-B-#-C# y termina en B


e--------------------------------------------
B--11-11-11-11-9-11-12-11-11-7-7-9-9-6-6-----
G--------------------------------------------
D--------------------------------------------
A--------------------------------------------
E--------------------------------------------


e-------------------------------------------------
B--11-11-11-11-9-11-12-11-11-7-7-14-14-14-14--12~
G-------------------------------------------------
D-------------------------------------------------
A-------------------------------------------------
E-------------------------------------------------



ATT: @riel
Versión 2 - Run (Letra y acordes)
intro: C#m  A  E  B  C#m  A  E  B
Verso 1

      C#m         A   E      B
Eres Dios sin principio
    C#m    A E   B
Creador infinito
          A
Tú nos viste aquí
              C#m   B
Cuando llamaste la tierra
      A
Y el mundo a existencia


VERSO 2
      C#m         A   E      B
Eres Dios de victoria
    C#m       A E   B
La historia es tu historia
          A
Tú quien fuiste y es
              C#m   B
Y quien por siempre será
      A
Viviré por tu gloria

CORO 1
        E
Y correré
        B           C#m
Arde fuego en mi corazón
          A             E
Nada puede apagar tu amor
   B/F#   E/G#    A   C#m
Mi Dios la Gloria te daré

CORO 2
        E
Y correré
        B           C#m
Con mi vida te alabaré
          A             E
Y tu nombre famoso haré
   B/F#   E/G#     A
Mi Dios la gloria te daré
C#m
Jesús

VERSO 3
      C#m         A   E      B
Eres Dios, somos libres
    C#m    A E   B
En nosotros tú vives
          A
Tú nos viste aquí
              C#m   B
Antes de resucitar
      A
Y entregarnos tu promesa

El material contenido en esta página es para exclusivo uso privado y con propósito meramente educativo, se prohibe su reproducción y uso con fines comerciales