Point of diference

Acordes de la canción 'Point of diference' de Hillsong United

Versiones de esta canción: Tablatura para bajo (bass tab) - Tablatura para guitarra (TAB)

Coro:
B F# G# E


G--------------
D--------------
A--------2-2---
E-4-4-4-4---1-1 x2

G------------------
D------------------
A-2-2-2-2-2-2-4-4--
E-----------------2
(chequen el tiempo)

tocamos otra vez.
2 veces

E B G#

Pre-coro:
G----------
D----------
A----7-7---
E-0-0----7-4 x2

Despues del Pre-coro:
G-----------------
D-----------------
A---7----7--------
E-0--7-0--7-0--7-4 x3
Versión 2 - Point of diference (Tablatura para guitarra (TAB))
Tabs
Intro/Coro:
e|-------------------|
b|-12---11--12--12---|
g|-11---11--11--9----|
d|-9----9---9---9----|
a|-------------------|
e|-------------------|
B . F# . G#m . E (El Coro se esucha mejor en acordes
                  o bien dos guitarra una acordes
                  y otra los adornos.)

Pre-Verso:
e|-------------------------------------|
b|-9-(x12)-9s11s9----------------------|
g|----------------11-8-(x12)-6-6-6-6---|
d|-------------------------------------|
a|-------------------------------------|
e|-------------------------------------|
Acordes: G#m B (x2)

Verso:
e|--------------------|
b|-16-16-16-16-(x8)---|
g|--------------------|
d|--------------------|
a|--------------------|
e|--------------------|

e|------------------------------------------------|
b|-17-17-17-17-(x2)-16-16-16-16-14-14-14-14-------|
g|------------------------------------------------|
d|------------------------------------------------|
a|------------------------------------------------|
e|------------------------------------------------|

e|--------------------|
b|-16-16-16-16-(x4)---|
g|--------------------|
d|--------------------|
a|--------------------|
e|--------------------|

Pre-Coro/Pre-Puente
E G#m E G#m
B
E G#m E
B

Puente:
tocamos en 4 tiempos.
e|-----------------------|
b|-12-12-11-11-4-4-4-7---|
g|-----------------------|
d|-----------------------|
a|-----------------------|
e|-----------------------|

e|-----------------------|
b|-12-12-12-12-5-5-5-5---|
g|-----------------------|
d|-----------------------|
a|-----------------------|
e|-----------------------|

El material contenido en esta página es para exclusivo uso privado y con propósito meramente educativo, se prohibe su reproducción y uso con fines comerciales