Only One

Tabs, letra y acordes de 'Only One' por Hillsong United

Versiones disponibles: Letra y acordes - Tablatura para guitarra (TAB)

(MI único Dios)

Introducion:

Empieza con un arreglillo de guitarra, bajo y bateria:
(Bajo: F#-F#-F#-F#-F#-F#-F#-F#-G#-G#-G#-G# x 3
y la cuarta vez se sostiene y termina en F#)
La guitarra empíeza a tocar hasta que entra la voz.

F#
__Señor me encuentro en tu presencia
       D#m
Alabándote
(D#m)
Mi mundo y corazón cambiaste
                C#
Y lo que tengo hoy
                 B
Lo pongo a tus pies

F#
__Todo es diferente ahora contigo Dios
               D#m
Rompiste maldición
(D#m)
Me levantas con tu mano de  amor
            C#
Y no me dejas ir
             B
Toma mi corazón

G#m7                              B
_____Hoy te encontrado y todo en mí esta cambiando
G#m7                        B
_____Nada es lo mismo pues, tú  me has salvado

D#m          B        F#        C#
____Señor tu fama gritaré, Por siempre
D#m           B            F#     C#
____Mi único Dios te alabare, mi Cristo

D#m             B                F#  -  C#
___Tú eres la fuerza que hay en mí
D#m            B              C#
___Tú eres la luz que me hace ver,
            F# - C# - F#
 Mi único Dios


Despues se repite desde:

Todo es diferente ahora contigo...

Dios les Bendiga!!
Saludos a los jovenes de Estrella de Belén!!
Versión 2 - Only One (Tablatura para guitarra (TAB))
Intro:
--------------------
--7(6x)-9-9--11(8x)-
--------------------
--------------------
--------------------
--------------------

Verse 1: esperamos se silencia la guitarra
         antes y damos un B en acorde
         y despues verso 2

Verse 2:
----------------------------------------
---------11-------11---------11---12-11-
-11-13----11-13----11-13---11-----------
----------------------------------------
----------------------------------------
----------------------------------------

---------------------------------
---------11--------11-------11---
-11-13----11-13----11-13---------
---------------------------------
---------------------------------
---------------------------------

---------------------------------
---------------------------------
-10-11-13--10-11-13--10-11-13----
---------------------------------
---------------------------------
---------------------------------
Tocamos el acorde: B.

Pre-Coro: Rasgeamos:
G#m B G#m B

Coro:
D#m B F# C#
D#m B F# C#
D#m B F# C#
D#m B C#

El material contenido en esta página es para exclusivo uso privado y con propósito meramente educativo, se prohibe su reproducción y uso con fines comerciales