One Way

Tabs, letra y acordes de 'One Way' por Hillsong United

Versiones disponibles: Tablatura para guitarra (TAB) - Letra y acordes - Letra y acordes - Letra y acordes - Letra y acordes - Tablatura para bajo (bass tab)

Intro: octavas
------------------|
------------------|
-8----13---11--9--|
------------------|
-6----11---9---7--|
------------------|
B/D# G#m F# E

Coro:
------------------|
------------5-----|
-4--3---4---4-----|
-4--4---4---2-----|
-2--2---2---------|
------------------|
B F# G#m E

Pre-verso 2:
------------------------|
------------------------|
------------------------|
-9-8b9r8b9r6-6-------9--|
------------6-9-6b7r6---|
------------------------|

------------------------|
------------------------|
-------------8b9r8b9r8--|
-8b9r8-9-8-6------------|
----------6-9-----------|
------------------------|

2nd guitarra riff:
-----------11----12--11-----------|
---12--14----14----------14--12---|
-11--11--11----11--11--11--11-----|
----------------------------------|
----------------------------------|
----------------------------------|
Versión 2 - One Way (Letra y acordes)
intro: B - G#m - F# - E

Verso:
 B                        G#m
Mi vida dejo atus pies, eres vital para mi ser
F#                                   E
Miro hacia el cielo y siempre estas ahí
B
En ambición te busco ooh  Dios
G#m
Mis ojos pongo en ti señor
  F#                       E
En  humildad me rindo ante ti .

Coro:

  B           F#      G#m             E
jesus señor solo a ti yo rendiré mi vida
 B           F#        G#m             E
Jesus mi Dios solo a ti yo rendiré mi vida

(G#m - E)(x2)

 B
Siempre  ami lado estas jesus
G#m
Nadie me ama como tu
F#                               E
Tu gracia abunda tanto tanto en mi
B
Por siempre el mismo tu serás
G#m
Ayer y hoy eres igual
F#                               E
Por siempre y para siempre eres Rey

  B           F#        G#m              E
//jesus señor solo a ti yo rendiré mi vida
  B           F#         G#m             E
 Jesus mi Dios solo a ti yo rendiré mi vida//

   B                 F#
 ////Eres camino vida y verdad
     G#m             E         G#m
  No es por vista si no es por Fe
  F#          E
Vivimos para ti////

   Coro : x 2


preguntas

www.metroflog.com/paxn_n
nanipax@hotmail.com
Versión 3 - One Way (Letra y acordes)
Intro: G Em D C

Verso:

G
Rindo mi vida ante ti
Em
Te necesito sólo a ti
D
se que al buscarte
             C
siempre te hallaré
G
Nunca cambiaras jamas
Em
ayer y hoy eres igual
D                    C
Rey de reyes siempre reinas//

Coro:
G       D
Cristo eres
  Em
la unica razón
     C
por la que vivo////



Puente:
G
Eres el camino
  D
la vida y la verdad
Em
Vivo por fe
          C              Em
y no por lo que yo pueda ver
D           C
Vivimos por ti//


Coro:
G       D
Cristo eres
  Em
la unica razón
     C
por la que vivo////



Dios les bendiga... :)
Versión 4 - One Way (Letra y acordes)
pss esta otra versión se me hace mejor hay chekenla
solo denle chase se me hace mejor

intro: B - G#m - F# - E

Verso:
 B                       G#m
Mi vida rindo a tus pies, te necesito solo a ti
F#                                  E
Te busco siempre, y siempre estas ahí
 B
Solo en ti yo  buscare,
G#m
Pues eres todo para mí,
  F#                          E
Me rindo por completo hoy a ti.

Coro:

  B           F#              G#m                   E
//es Cristo el camino,  viviremos para el por siempre//

(G#m - E)(x2)

 B                         G#m
Siempre siempre estas ahí, en todas partes tu estas
F#                              E
Tu gracia abunda fuerte en mi ser
B                     G#m
Nunca nunca cambiaras, ayer y hoy eres igual
F#                           E
Eternamente y siempre sin final

   B            F#             G#m                    E
////es Cristo el camino,  viviremos para el por siempre////


   B                 F#
////Camino verdad y vida eres tu
     G#m             E             G#m
Por fe andamos no por vista oh Dios
  F#           E
Vivimos para ti////

   B            F#             G#m                    E
////es Cristo el camino,  viviremos para el por siempre////

final:   A-B(se remata con B)

no le puse "un camino" po k se dan oportunidades a otros.
si no k tienen k saber k Cristo es el camino.
Versión 5 - One Way (Letra y acordes)
C
 PONGO MI VIDA A TUS PIES
Am
  LO QUE REQUIERO ESTA EN TI
G
 ME VUELVO A TI
                  F
Y SIEMPRE ESTAS AHI

C
 ANTE TODO TE PONDRE
Am
 EN TIEMPOS MALOS BUSCARE
G
  TODO LO QUE SOY
        F
RIDO A TI

----CORO---
C       G     Am
 CRISTO,   ERES EL CAMINO
        F
ERES POR QUIEN VIVO        x2 (2da  parte A#  en ves del F)

hay una figura de la lira electrica, este es el acompañamiento
****A (G)  F (G) A (G) F *****

-----verso-----------
PROFUNDA ES TU GRACIA EN MI
ABUNDANTE SIEMPRE AHI
EN TODAS PARTES TU ESTAS AQUÍ
NUNCA DEJARAS DE SER
ERES EL MISMO DE AYER
POR SIEMPRE Y PARA SIEMPRE ERES REY

----CORO---
C        G     Am
  CRISTO,   ERES EL CAMINO
        F
ERES POR QUIEN VIVO        x2 (2da  parte A#  en ves del F)


----------------
C               G
EN FE POR TI NOSOTROS VIVIMOS
Am           F          Am
EL CAMINO Y VERDAD ERES TU
   G          F
VIVIMOS PARA TI

----CORO---
C         G     Am
  CRISTO,    ERES EL CAMINO
         F
ERES POR QUIEN VIVO        x2 (2da  parte A#  en ves del F)

Bueno aquí esta  otra rola. Saludos a la iglesia semilla de vida
de SLP y al grupo de jóvenes(a la okarina, oscar, bamban, carlitos,
al chuy, al christian, al emanuel, a la ivana,al rayito,
y a todas las chavas jejejejejeje)
Versión 6 - One Way (Tablatura para bajo (bass tab))
drum beat.
G||------------------|--------------------------|
D||------------------|--------------------------|
A||------------------|--------------------------|
E||------------------|--7--7--7--7--7--7--7--7--|


--------------------------|--------------------------|
--------------------------|--------------------------|
--------------------------|--------------------------|
--7--7--7--7--7--7--7--7--|--4--4--4--4--4--4--4--4--|

----------------------|--------------------------|
----------------------|--------------------------|
--7----6----4----6----|--------------------------|
----------------------|--2--2--2--2--2--2--2--2--|

--------------------------|--------------------------|
--------------------------|--------------------------|
--------------------------|--------------------------|
--2--2--2--2--2--2--2--2--|--0--0--0--0--0--0--0--0--|

--------------------------|--------------------------|
--------------------------|--------------------------|
--------------------------|--------------------------|
--0--0--0--0--0--0--0--0--|--7--7--7--7--7--7--7--7--|

--------------------------|--------------------------|
--------------------------|--------------------------|
--------------------------|--------------------------|
--7--7--7--7--7--7--7--7--|--4--4--4--4--4--4--4--4--|

--------------------------|--------------------------|
--------------------------|--------------------------|
--------------------------|--------------------------|
--4--4--4--4--4--4--4--4--|--2--2--2--2--2--2--2--2--|

--------------------------|--------------------------|
--------------------------|--------------------------|
--------------------------|--------------------------|
--2--2--2--2--2--2--2--2--|--0--0--0--0--0--0--0--0--|

--------------------------|--------------------------|
--------------------------|--------------------------|
--------------------------|--------------------------|
--0--0--0--0--0--0--0--0--|--7--7--7--7--7--7--7--7--|


--------------------------|--------------------------|
--------------------------|--------------------------|
--------------------------|--------------------------|
--7--7--7--7--7--7--7--7--|--4--4--4--4--4--4--4--4--|

--------------------------|--------------------------|
--------------------------|--------------------------|
--------------------------|--------------------------|
--4--4--4--4--4--4--4--4--|--2--2--2--2--2--2--2--2--|

--------------------------|--------------------------|
--------------------------|--------------------------|
--------------------------|--------------------------|
--2--2--2--2--2--2--2--2--|--0--0--0--0--0--0--0--0--|

--------------------------|--------------------------|
--------------------------|--------------------------|
--------------------------|--------------------------|
--0--0--0--0--0--0--0--0--|--7--7--7--7--7--7--7--7--|

--------------------------|--------------------------|
--------------------------|--------------------------|
--------------------------|--------------------------|
--2--2--2--2--2--2--2--2--|--4--4--4--4--4--4--4--4--|

--------------------------|--------------------------|
--------------------------|--------------------------|
--------------------------|--------------------------|
--0--0--0--0--0--0--0--0--|--7--7--7--7--7--7--7--7--|

--------------------------|--------------------------|
--------------------------|--------------------------|
--------------------------|--------------------------|
--2--2--2--2--2--2--2--2--|--4--4--4--4--4--4--4--4--|

--------------------------|--------------------------|
--------------------------|--------------------------|
--------------------------|--------------------------|
--5--5--5--5--5--5--5--5--|--7--7--7--7--7--7--7--7--|

--------------------------|--------------------------|
--------------------------|--------------------------|
--------------------------|--------------------------|
--2--2--2--2--2--2--2--2--|--4--4--4--4--4--4--4--4--|

--------------------------|--------------------------|
--------------------------|--------------------------|
--------------------------|--------------------------|
--5--5--5--5--5--5--5--5--|--7--7--7--7--7--7--7--7--|

--------------------------|--------------------------|
--------------------------|--------------------------|
--------------------------|--------------------------|
--7--7--7--7--7--7--7--7--|--4--4--4--4--4--4--4--4--|

--------------------------|--------------------------|
--------------------------|--------------------------|
--------------------------|--------------------------|
--4--4--4--4--4--4--4--4--|--2--2--2--2--2--2--2--2--|

--------------------------|--------------------------|
--------------------------|--------------------------|
--------------------------|--------------------------|
--2--2--2--2--2--2--2--2--|--0--0--0--0--0--0--0--0--|

--------------------------|--------------------------|
--------------------------|--------------------------|
--------------------------|--------------------------|
--0--0--0--0--0--0--0--0--|--7--7--7--7--7--7--7--7--|

-------------------------|--------------------------|
--------------------------|--------------------------|
--------------------------|--------------------------|
--7--7--7--7--7--7--7--7--|--4--4--4--4--4--4--4--4--|

--------------------------|--------------------------|
--------------------------|--------------------------|
--------------------------|--------------------------|
--4--4--4--4--4--4--4--4--|--2--2--2--2--2--2--2--2--|

--------------------------|--------------------------|
--------------------------|--------------------------|
--------------------------|--------------------------|
--2--2--2--2--2--2--2--2--|--0--0--0--0--0--0--0--0--|

--------------------------|--------------------------|
--------------------------|--------------------------|
--------------------------|--------------------------|
--0--0--0--0--0--0--0--0--|--7--7--7--7--7--7--7--7--|

--------------------------|--------------------------|
--------------------------|--------------------------|
--------------------------|--------------------------|
--2--2--2--2--2--2--2--2--|--4--4--4--4--4--4--4--4--|

--------------------------|--------------------------|
--------------------------|--------------------------|
--------------------------|--------------------------|
--0--0--0--0--0--0--0--0--|--7--7--7--7--7--7--7--7--|

--------------------------|--------------------------|
--------------------------|--------------------------|
--------------------------|--------------------------|
--2--2--2--2--2--2--2--2--|--4--4--4--4--4--4--4--4--|

--------------------------|--------------------------|
--------------------------|--------------------------|
--------------------------|--------------------------|
--5--5--5--5--5--5--5--5--|--7--7--7--7--7--7--7--7--|

--------------------------|--------------------------|
--------------------------|--------------------------|
--------------------------|--------------------------|
--2--2--2--2--2--2--2--2--|--4--4--4--4--4--4--4--4--|

--------------------------|--------------------------|
--------------------------|--------------------------|
--------------------------|--------------------------|
--0--0--0--0--0--0--0--0--|--7--7--7--7--7--7--7--7--|

--------------------------|--------------------------|
--------------------------|--------------------------|
--------------------------|--------------------------|
--2--2--2--2--2--2--2--2--|--4--4--4--4--4--4--4--4--|


--------------------------|----|----|----|---
--------------------------|----|----|----|---
--------------------------|----|----|----|---
--5--5--5--5--5--5--5--5--|----|----|----|---


|----|--------------------------|
|----|--------------------------|
|----|--------------------------|
|----|--7--7--7--7--7--7--7--7--|


--------------------------|--------------------------|
--------------------------|--------------------------|
--------------------------|--------------------------|
--2--2--2--2--2--2--2--2--|--4--4--4--4--4--4--4--4--|

--------------------------|--------------------------|
--------------------------|--------------------------|
--------------------------|--------------------------|
--0--0--0--0--0--0--0--0--|--4--4--4--4--4--4--4--4--|


--------------------------|--------------------------|
--------------------------|--------------------------|
--------------------------|--------------------------|
--2--2--2--2--2--2--2--2--|--0--0--0--0--0--0--0--0--|



--------------------------|--------------------------|
--------------------------|--------------------------|
--------------------------|--------------------------|
--0--0--0--0--0--0--0--0--|--7--7--7--7--7--7--7--7--|



--------------------------|--------------------------|
--------------------------|--------------------------|
--------------------------|--------------------------|
--2--2--2--2--2--2--2--2--|--4--4--4--4--4--4--4--4--|



--------------------------|--------------------------|
--------------------------|--------------------------|
--------------------------|--------------------------|
--0--0--0--0--0--0--0--0--|--4--4--4--4--4--4--4--4--|



--------------------------|--------------------------|
--------------------------|--------------------------|
--------------------------|--------------------------|
--2--2--2--2--2--2--2--5--|--5--5--5--5--5--5--5--5--|



--------------------------|---------------------|
--------------------------|---------------------|
--------------------------|---------------------|
--5--5--5--5--5--5--5--5--|--7--7--7------------|



---------------------|--------------------------|
---------------------|--------------------------|
---------------------|--------------------------|
--2--2--2------------|--4--4--4--4--4--4--4--4--|



--------------------------|---------------------|
--------------------------|---------------------|
--------------------------|---------------------|
--0--0--0--0--0--0--0--0--|--7--7--7------------|



---------------------|--------------------------|
---------------------|--------------------------|
---------------------|--------------------------|
--2--2--2------------|--4--4--4--4--4--4--4--4--|



--------------------------|--------------------------|
--------------------------|--------------------------|
--------------------------|--------------------------|
--5--5--5--5--5--5--5--5--|--7--7--7--7--7--7--7--7--|



--------------------------|--------------------------|
--------------------------|--------------------------|
--------------------------|--------------------------|
--2--2--2--2--2--2--2--2--|--4--4--4--4--4--4--4--4--|



--------------------------|--------------------------|
--------------------------|--------------------------|
--------------------------|--------------------------|
--0--0--0--0--0--0--0--0--|--7--7--7--7--7--7--7--7--|



--------------------------|--------------------------|
--------------------------|--------------------------|
--------------------------|--------------------------|
--2--2--2--2--2--2--2--2--|--4--4--4--4--4--4--4--4--|



--------------------------|--------------------------|
--------------------------|--------------------------|
--------------------------|--------------------------|
--5--5--5--5--5--5--5--5--|--5--5--5--5--5--5--5--5/-|



-------------------||
-------------------||
-------------------||
--7----------------||


bueno aqui esta mi version de bajo de one way buensimos este grupo
australiano bueno entren a mi pagina www.rocksebna.tk

El material contenido en esta página es para exclusivo uso privado y con propósito meramente educativo, se prohibe su reproducción y uso con fines comerciales