My future decided

Acordes de la canción 'My future decided' de Hillsong United

Versiones de esta canción: Tablatura para guitarra (TAB) - Letra y acordes - Tablatura para bajo (bass tab)

Intro:

e|----------------------------------
b|----------------------------------
g|----------------------------------
d|----------------------------------
a|-4-4-------------4-4-----5-5-4-4--
e|-----2-2-2-2-2-2-----2-2----------

e|----------------------------------
b|----------------------------------
g|----------------------------------
d|----------------------------------
a|----------------------------------
e|-5-5-5-5-5-5-5-5-5-5-5-5-7-7-7-7--

e|----------------------------------
b|----------------------------------
g|----------------------------------
d|----------------------------------
a|-4-4-------------4-4-----5-5-4-4--
e|-----2-2-2-2-2-2-----2-2----------

e|-----------------------------------|
b|-----------------------------------|
g|-----------------------------------|
d|-----------------7-7-7-7-6-6-6-6-4-|
a|-----------------------------------|
e|-5-5-5-5-5-5-5-5-------------------|

Coro:
1.- esto se hace para entrar al coro:

e|----------------------------------|
b|-9-----10----12-------------------|
g|-12b13-13b14-15b16----------------|
d|----------------------------------|
a|----------------------------------|
e|----------------------------------|

despues del tab acemos
estos acordes:

A D F#m F#m
A D F#m F#m
D A E E
D A E E

Instrumental:

e|-----12-12-------------------17-17-16-16-
b|-s14-------------------------------------
g|-----------14-14-13-13-14-14-------------
d|-----------------------------------------
a|-----------------------------------------
e|-----------------------------------------

e|-12-12--------------------------------
b|--------------------------------------
g|-------14-14-14-14-14-14-14-14-14-14--
d|--------------------------------------
a|--------------------------------------
e|--------------------------------------

e|----------------------------------
b|-------------12-12-12-12----------
g|-14-14-14-14----------------------
d|----------------------------------
a|----------------------------------
e|----------------------------------

e|-----12-12-------------------17-17-16-16-
b|-s14-------------------------------------
g|-----------14-14-13-13-14-14-------------
d|-----------------------------------------
a|-----------------------------------------
e|-----------------------------------------

e|-12-12--------------------------------
b|--------------------------------------
g|-------14-14-14-14-14-14-14-14-14-14--
d|--------------------------------------
a|--------------------------------------
e|--------------------------------------

e|------------------|
b|-5---3---3--------|
g|-8b9-6b7-6b7r6----|
d|------------------|
a|------------------|
e|------------------|


Puente:

e|-----------------------------------------
b|-10-10-10-9--10-------10-10-10-9-10------
g|-11-11-11-11-11--(x2)-9--9--9--9-9--(x2)-
d|-----------------------------------------
a|-----------------------------------------
e|-----------------------------------------

e|----------------------10--------|
b|-10-10-10-9--10-------10-(x16)--|
g|-11-11-11-11-11--(x2)-----------|
d|--------------------------------|
a|--------------------------------|
e|--------------------------------|
Versión 2 - My future decided (Letra y acordes)
Intro:  C#m  F#m  C#m  F#m  D  C#m  A

       F#m
Mi futuro está en ti
                A
Un plan tú tienes Para mí
       D         A
Me guías con tu luz
     F#m
Te seguiré

Pre-coro
         D    A
Al mirar la eternidad
           F#m
Mi alma en ti segura está
       D
Lo decidí
           A          E
Que tú eres todo para mí

Coro
A         D
Me salvaste
        F#m
Mi futuro está en ti
      A       D
Tú eres mi vida
       F#m
Te alabaré
            D
Yo sé que tuyo
  A      E
Tuyo soy
             D
Yo sé que tuyo
  A      E
Tuyo soy

Verso 2
            F#m
Gobiernas toda la creación
             A
Eres mi roca y salvación
             D    A
Y mientras viva yo
       F#m
Te seguiré

Puente
F#m
Sin temor declaramos
Quien somos en ti
A
(Somos tu pueblo
Y no nos callaremos)
F#m
Clamaremos
Unidos
Con fuerza y pasión
A (Bm)
(Eres Señor
Y no podrán movernos)
Versión 3 - My future decided (Tablatura para bajo (bass tab))
Intro:

G|-------------------------------------|
D|-------------------------------------|
A|-44-------44--5544-------------------|
E|---222222---22-----555555555555-7777-| x3


Verso:

G|----------------------------------------------------|
D|----------------------------------------------------|
A|-9999999999999999------------------55555555---------|
E|------------------5555555555555555---------55555555-|


G|-----------------|
D|-----------------|
A|-----------------|
E|-22222222—2-22-2-|


Pre-Coro:

G|---------------------------------------|
D|---------------------------------------|
A|-5555-5-5-5----------------------------|
E|------------5555-5-5-5-2222-22-2222-22-|


G|---------------------------------------|
D|---------------------------------------|
A|-5555-5-5-5-----------7777777777777777-|
E|------------5555-5-5-5-----------------|


Coro:

G|-------------------------------|
D|-------------------------------|
A|-----5--5-5-5------------------|
E|-5-55---------2222222222222222-|


G|--------------------------------|
D|--------------------------------|
A|-----5--5-5-5--999999999999-777-|
E|-5-55---------------------------|


G|---------------------------------------|
D|---------------------------------------|
A|-5555-5-5-5-----------7777777777777777-|
E|------------5555-5-5-5-----------------|


G|-----------------------|
D|-----------------------|
A|-5555-5-5-5------------|
E|------------5555-5-5-5-|


Intro:

Segundo Verso:

G|--------------------------------------------|
D|--------------------------------------------|
A|--------------------------------------------|
E|-2-----------------------------------2222-2-|

Pre-Coro:

Coro:

G|-------------------------------|
D|-------------------------------|
A|-----5--5-5-5------------------|
E|-5-55---------2222222222222222-|


G|--------------------------------|
D|--------------------------------|
A|-----5--5-5-5--999999999999-777-|
E|-5-55---------------------------|


G|---------------------------------------|
D|---------------------------------------|
A|-5555-5-5-5-----------7777777777777777-|
E|------------555-5-5-5------------------| x2

Solo:

Bridge:

G|--------------------------------------------------|
D|-s4-------s7--------------7-----------------------|
A|--------------------------------------------------|
E|-----------------2---------------2222222222222222-|

G|-------------------------------------------------------|
D|-------------------------------------------------------|
A|-------------------------------------------------------|
E|-s555555555555-7777-2222222222222222-s7777777777777777-|


Despues del Coro:

G|-------------------------------|
D|-------------------------------|
A|-----5--5-5-5------------------|
E|-5-55---------2222222222222222-|


G|--------------------------------|
D|--------------------------------|
A|-----5--5-5-5--999999999999-777-|
E|-5-55---------------------------|


G|--------------------------------------------|
D|--------------------------------------------|
A|-5555-5-5-5-----------------------7-7s12-11-|
E|------------555-5-5-5-000000000000----------| x2


G|---------------------------------------------|
D|---------------------------------------------|
A|-5555-5-5-5------------------------7-7s12-11-|
E|------------5555-5-5-5-777777777777----------|


Coro:

G|-----|
D|-----|
A|-----|
E|-s12-|

El material contenido en esta página es para exclusivo uso privado y con propósito meramente educativo, se prohibe su reproducción y uso con fines comerciales