Most High

Tabs, letra y acordes de 'Most High' por Hillsong United

Versiones disponibles: Tablatura para guitarra (TAB) - Letra y acordes

Intro & Verso
--------------------------------
-----7------6------4-----6------
---6------6------6-----6--------
-4------4------4-----4----------
--------------------------------
--------------------------------

----------------------------------
-----7------6------4--6b7r6-4---4-
---6------6------6------------6---
-4------4------4------------------
----------------------------------
----------------------------------


Pre-2nd Verso/Instrumental
------------------------9-11----------
----11-12-9-12-11----11------11h12p11-
-11---------------11------------------
--------------------------------------
--------------------------------------
--------------------------------------
Versión 2 - Most High (Letra y acordes)
INTRO: (Esta figura se repite en los versos y en el puente 1)

   F#    C#    B     C#
e|-----|-----|-----|-----|
B|---7-|---6-|---4-|---6-|
G|--6--|--6--|--6--|--6--| (Dos veces)
D|-4---|-4---|-4---|-4---|
A|-----|-----|-----|-----|
E|-----|-----|-----|-----|


F#            C#    B  C#
  Tú rostro quiero ver,
F#            C#  B  C#
  tus sendas conocer
D#        C#    B     C#     F# C# B
  que tu luz, brille más en mi

F#            C#   B  C#
  Hoy quiero tu poder,
F#           C#      B  C#
  ven, lléname otra vez
D#        C# B       C#     F# C# B
  levántame  en tus manos Dios

           C#             D#        B
// Pon un nuevo canto en mi, de alabanza a ti
         C#        D#   B
   y el mundo temerá a ti //


    F# C#       D#       B
Digno,    digno es el Señor,
    F# C#       D#       B
Digno,    digno es el Señor,
    F# C#       D#       B
Digno,    digno es el Señor,
  F#    C#  D#  B
grande es


PUENTE 1: F# C# B C#


F#            C#   B  C#
  Hoy quiero tu poder,
F#           C#      B  C#
  ven, lléname otra vez
D#        C# B       C#     F# C# B
  levántame  en tus manos Dios

           C#             D#        B
// Pon un nuevo canto en mi, de alabanza a ti
         C#        D#   B
   y el mundo temerá a ti //


       F# C#       D#       B
// Digno,    digno es el Señor,
       F# C#       D#       B
   Digno,    digno es el Señor,
       F# C#       D#       B
   Digno,    digno es el Señor,
     F#    C#  D#  B
   grande es //


PUENTE 2: // F# C# D# B   F# C# B //


           C#             D#        B
// Pon un nuevo canto en mi, de alabanza a ti
         C#        D#   B
   y el mundo temerá a ti //


       F# C#       D#       B
// Digno,    digno es el Señor,
       F# C#       D#       B
   Digno,    digno es el Señor,
       F# C#       D#       B
   Digno,    digno es el Señor,
     F#    C#  D#  B
   grande es //

El material contenido en esta página es para exclusivo uso privado y con propósito meramente educativo, se prohibe su reproducción y uso con fines comerciales