Me veniste a rescatar

Acordes de la canción 'Me veniste a rescatar' de Hillsong United

Versiones de esta canción: Tablatura para guitarra (TAB) - Letra y acordes - Tablatura para guitarra (TAB) - Tablatura para bajo (bass tab) - Letra y acordes - Tablatura para bajo (bass tab)

Intro Y Verso

--------|-3--------5--|-3------|----------------|
-5------|-3-(x5)--3-3-|--------|-6-(x4)-6-6-6-6-|
-5-(x8)-|--------5----|-5-(x8)-|-5------4-5-4-5-|
--------|-------------|--------|----------------|
--------|-------------|--------|----------------|
--------|-------------|--------|----------------|

C........G.............Am7......F

Un gran saludo a los jovenes de la iglesia de betesda, chile
www.betesda.cl
agreguenme a su msn

Intro: C G Am F C G/B Am F
C                   G
Vengo ante ti postrado,
Am          F            C

con todo mi ser te quiero ver,
G/B            Am   F
tuyo soy, Señor.

C                     G
Mi vida pongo en tus manos,
Am              F               C
Dios de gracia, vengo en humildad,
         G/B                  Am F
En tu presencia quiero estar.

C          G/B Am   F             C
Clamé, me oíste, me viniste a rescatar,
          G/B        Am F
Contigo quiero estar.

F C G Am F

Am             G/B            C
////Con mi fe te exaltaré,
                      G/D  Am
Con mi amor te exaltaré,
                 G  F (G) F
Con mi ser te exaltaré.////
Versión 2 - Me veniste a rescatar (Letra y acordes)
C          G
Vengo ante ti postrado,
Am           F              C
con todo mi ser te quiero ver,
G/B           Am F
tuyo soy, Señor.

C             G
Mi vida pongo en tus manos,
Am              F             C
Dios de gracia, vengo en humildad,
G/B                     Am F
En tu presencia quiero estar.

C          G/B Am     F           C
Clamé, me oíste, me viniste a rescatar,
G/B              Am F
Contigo quiero estar.

(intro + verso 2 + coro x 2) (instr)

Am
////Con mi fe te exaltaré,
C               Am
Con mi amor te exaltaré,
                 F
Con mi ser te exaltaré.////
(coro) (instrumental puente + puente)
Versión 3 - Me veniste a rescatar (Tablatura para guitarra (TAB))
 Introduccion y Verso:

 e|--------|-3--------5--|-3------|----------------|
 B|-5------|-3-(x5)--3-3-|--------|-6-(x4)-6-6-6-6-|
 G|-5-(x8)-|--------5----|-5-(x8)-|-5------4-5-4-5-|
 D|--------|-------------|--------|----------------|
 A|--------|-------------|--------|----------------|
 E|--------|-------------|--------|----------------|



 Puente:

 e|------------------|
 B|-13------12-------|
 G|-12-(x4)-12-(x4)--|(x3)
 D|-10------10-------|
 A|------------------|
 E|------------------|

 e|---------------------|
 B|-13--13------13------|
 G|-12--10-(x4)-9--(x3)-|
 D|-10--10------10------|
 A|---------------------|
 E|---------------------|


 e|------------------|
 B|-13------12-------|
 G|-12-(x4)-12-(x4)--|(x2)
 D|-10------10-------|
 A|------------------|
 E|------------------|


 e|---------------------------------------------|
 B|-13------------------------------------------|
 G|-10-(x4)-------------------------------------|(x2)
 D|-10------------------------------------------|
 A|---------------------------------------------|
 E|---------------------------------------------|

Espero que les sirva
Versión 4 - Me veniste a rescatar (Tablatura para bajo (bass tab))
Aqui les mando esta tab espero que les sirva a todos...


Intro

G|-------------------------------------------------------------------|
D|-------------------------------------------------------------------|
A|-3-3-3-3-3-3-58-85-5-5-510-10---12-12-12-12-12-12-12-12--8-8-8-8-8-8-
  8-8-|
E|---------------------------------------------------------------------

G|--------------------------------------------------------------------|
D|--------------------------------------------------------------------|
A|-3-3-3-3-3-3-52-25-5-5-5/10-10-7-7-7-7-7-7-7-7-8-8-8-8-8-8-8-8-8--|
E|--------------------------------------------------------------------|

Verso

G|--------------------------------------------------------------------|
D|--------------------------------------------------------------------|
A|-3-3-3-3-3-3-3-3-10-10-10-10-10-10-10-10-0-0-0-0-0-0-0-0-8-8-8-8-8-8-
 -8-8-----|
E|--------------------------------------------------------------------|

G|--------------------------------------------------------------------|
D|--------------------------------------------------------------------|
A|-3-3-3-3-3-3-3-3-10-10-10-10-10-10-10-10-0-0-0-0-0-0-0-0------------|
E|---------------------------------------------------4-4-4-4-4-4--4-4-|



Coro 1

G|----------------------------------|
D|----------------------------------|
A|-(3)------------------------------|
E|----------------------------------|

Coro 2

G|-----------------------------------------------------------------|
D|-----------------------------------------------------------------|
A|-3-3-3-3-3-3-3-3-2-2-2-2-2-2-2-2-0-0-0-0-0-0-0-0-----------------|
E|-------------------------------------------------1-1-1-1-1-1-1-1-|

Puente
3:01 –Esto se hace hasta el minuto 4:11
G|--------------------------------------------------------------------|
D|--------------------------------------------------------------------|
A|-0-0-0-0-0-0-0-0-0-0-0-0-0-0-2-2-3-3-3-3-3-3-3-3-3-3-3-3-3-3-2-2----|
E|--------------------------------------------------------------------|

G|--------------------------------------------------------------------|
D|--------------------------------------------------------------------|
A|-0-0-0-0-0-0-0-0-0-0-0-0-10-10-7-7-8-8-8-8-8-8-8-8-8-8-8-8-8-8-7-10-|
E|--------------------------------------------------------------------|



Luego en el minuto 4:11
Se hace 3 veces
G|------------|-----|---------------------------------------
D|------------|-----|--------------------------------------
A|-0-0-7/107-|-2-2-|-3---3/53-3-3-10----3---3/53-3-10--3/72-
E|------------|-----|---3--------------8---3-----------------

Luego
G|------------|-----|----------------------------------------
D|------------|-----|----------------------------------------
A|-0-0-7/107-|-----|-------------3-3-8-8-8-8-8-8-------------
E|------------|-3-0-|-1-1-1-1-1-1-----------------10-11-------

G|------------|-----|---------------------------------------
D|------------|-----|--------------------------------------
A|-0-0-7/107-|-2-2-|-3---3/53-3-3-10----3---3/53-3-10--3/72-
E|------------|-----|---3--------------8---3-----------------

G|------------|-----|---------
D|------------|-----|---------
A|-0-0-7/107-|-----|---------
E|------------|-3-0-|-(1)-----

El parentesis es que al tocar la nota se mantenga presionada
Versión 5 - Me veniste a rescatar (Letra y acordes)
NOTA:
1 - Para hacer el acorde de FA: El indice no lo ocupes como Capo, sino que solo
presiona el DO de la segunda cuerda
2 - Hay un acorde que no se su nombre, contiene las notas DO-RE-MI-SOL-SI.
Este acorde lo llamaré "♪" y se digitaría así:
primer espacio de la 2°cuerda + segundo espacio de la 5°cuerda


ME VINISTE A RESCATAR
Hillsong United - Unidos Permaneceremos
DO Mayor 4/4

//DO  SOL  LAm7  FA//

DO         SOL
Vengo ante ti postrado,
LAm7        FA            DO
con todo mi ser te quiero ver,
SOL       LAm7    FA
tuyo soy, Señor.
DO            SOL
Mi vida pongo en tus manos,
LAm7            FA            DO
Dios de gracia, vengo en humildad,
         SOL             LAm7    FA
En tu presencia quiero estar.


DO         SOL LAm7      FA           DO
Clamé, me oíste,    me viniste a rescatar,
         SOL     LAm7   FA
Contigo quiero estar.


DO  SOL  LAm7  FA


DO            SOL
Mi vida pongo en tus manos,
LAm7            FA            DO
Dios de gracia, vengo en humildad,
         SOL             LAm7    FA
En tu presencia quiero estar.


  DO         SOL LAm7      FA           DO
//Clamé, me oíste,    me viniste a rescatar,
         SOL     LAm7 FA
Contigo quiero estar//  [X2]


LAm7 (MIm7 1 tiempo antes del siguiente acorde)
DO   ("♪"  1 tiempo antes del siguiente acorde)
LAm7 (SOL  2 tiempos antes del siguiente acorde)
FA


LAm7                MIm7 DO
////Con mi fe te exaltaré,
                  "♪" LAm7
Con mi amor te exaltaré,
               SOL   FA
Con mi ser te exaltaré.////


DO         SOL LAm7      FA           DO
Clamé, me oíste,    me viniste a rescatar,
         SOL     LAm7   FA
Contigo quiero estar
Versión 6 - Me veniste a rescatar (Tablatura para bajo (bass tab))
Los números en paréntesis son las veces que toca la nota.

G---------------------------------------------|
D---------------------------------------------|
A-15(6)—17-/10-(4)-/19-(4)-12-(8)-8(8)     Intro x2
E---------------------------------------------|

G-------------------------------|
D-------------------------------|
A-15(8)-10(8)-12(8)-8(8)-|     x4
E--------------------------------|
cuando vuelves a comenzar hacer slide del   8/15 a veces
y también del 15/10 en ocasiones

Vengo ante ti postrado,
Am          F            C

con todo mi ser te quiero ver,
G/B            Am   F
tuyo soy, Señor.

Mi vida pongo en tus manos,
Am              F               C
Dios de gracia, vengo en humildad,
         G/B                  Am F
En tu presencia quiero estar.

C          G/B Am   F             C
Clamé, me oíste, me viniste a rescatar,
          G/B        Am F
Contigo quiero estar.

G---------------------------------------------|
D---------------------------------------------|
A-15(6)—17-/10-(4)-/19-(4)-12-(8)-8(8)     x1
E---------------------------------------------|

G-------------------------------|
D-------------------------------|
A-15(8)-10(8)-12(8)-8(8)-|     x6
E--------------------------------|

cuando vuelves a comenzar hacer slide del   8/15 a veces
y  también  del 15/10 en ocasiones.

Mi vida pongo en tus manos,
Am              F               C
Dios de gracia, vengo en humildad,
         G/B                  Am F
En tu presencia quiero estar.

C          G/B Am   F             C
Clamé, me oíste, me viniste a rescatar,
          G/B        Am F
Contigo quiero estar.
F C G Am F

G-------------------------------------------|
D-------------------------------------------|
A-------------3(14)-/10(2)------------------|  x2
E-7(14)-3(2)---------------7(14)-3(2)-1(16)-|

Am             G/B            C
////Con mi fe te exaltaré,
                      G/D  Am
Con mi amor te exaltaré,
                 G  F (G) F
Con mi ser te exaltaré.////
                                    X2
---------------------------------------------------------------------------
---------------------------------------------------------------------------
-7/12-10-------------7/12-10-------------3(3)-5-3-2-3-3---3(3)-5-3-2-3-3---
5-------12-10-5-/17—5-------12-10-5-5-3-3--------------3-3--------------3-3

Am             G/B            C
////Con mi fe te exaltaré,
                      G/D  Am
Con mi amor te exaltaré,
                 G  F (G) F
Con mi ser te exaltaré.////

El material contenido en esta página es para exclusivo uso privado y con propósito meramente educativo, se prohibe su reproducción y uso con fines comerciales