Look to you

Acordes de la canción 'Look to you' de Hillsong United

Versiones de esta canción: Tablatura para guitarra (TAB) - Tablatura para bajo (bass tab) - Letra y acordes

Intro:
--1--0---1--0---------
-----------------1----
----------------------
----------------------
----------------------
----------------------
Veros:se repite el intro jugando en el verso.
Pre-coro:
D# F
D# Cm
D# Gm F    x2

Coro:
B   F
Gm  D#
B   G#
Gm  D#


Instrumental:
e----------------------------------
b--------------3-3-3-3-3-3-3-------
g--3-3-3---------------------------
d--------3-3-3---------------------
a----------------------------------
e----------------------------------

e----------------------------------
b----------------------------------
g-3-3------------------------------
d-----3-3--6-6-6-5-5-5--3-(10x)----
a----------------------------------
e----------------------------------

e------------------------------------
b------------------------------------
g------------------------------------
d-5-5-3-3-3----------------------5-5-
a-----------6-6-6-3-3-3-3-3-3-3------
e------------------------------------

e----------------------------------
b----------------------------------
g----------------------------------
d----------------------------"3"---
a-5-5-5----------------------------
e--------3-3-3-3-3-3-3-3-----------
Versión 2 - Look to you (Tablatura para bajo (bass tab))
Intro
------------------------------
-------3-3-3----------3-3-3---
-1-1-1-------3--1-1-1-------3-
------------------------------


Verso
-3-3-----------<5>----------
----------h<5*>-----5-------
-----3h5*------------1---1--
-----------------------1----

-3-3----------<5>---------
---------h<5>-----5-------
-----3h5------------1---1-
----------------------1---

---------------
---------------
--------1(x16)-
-3(x16)--------

D# F
D# Cm
D# Gm F    x2

Coro: (NOta en vez de B qedaria bien un A#)
B   F
Gm  D#
B   G#
Gm  D#
Versión 3 - Look to you (Letra y acordes)
bue este tema es el primero q pongo y esta muy bueno
yo pongo el acompañamiento o chasquido jeje


(Bb = A#) cuerda 5 primer casillero [nota]

       Bb   F            Gm   D#
Yo te mirare      yo te mirare
      Bb     G#        Gm      D#
Solamente A ti    solamente A ti

Bb        C     X2

           Bb   C
Se que me amas
           Bb     C
Moriste en la cruz
       Gm           Bb
Por tu amor  por tu amor


        Bb     C
Se que tu vivo estas
        Bb    C
tu amor me transformo
        Gm                Bb
ahora libre soy, por tu gracia en mi


Pre coro
D#                     F
Cuando miro arriba al cielo azul
D#           Cm
me pregunto como fue
D#             Gm            F
que tu amor mi vida transformo

D#                     F
Cuando miro arriba al cielo azul
D#            Cm
Ya no existe mas temor
D#            Gm           F
puedo oir tu voz llamandome

Coro
      Bb   F            Gm   D#
Yo te mirare      yo te mirare
      Bb     G#        Gm      D#
Solamente A ti    solamente A ti


la parte del organo donde por cierto hace
un solo de organo espectacular ronda entre

Bb  Fm  Cm  D#

luego repite el coro hasta el pre y coro hasta el final

en fin esta muy buena la ciancion espero q la disfruten

si falta algo avisenme

El material contenido en esta página es para exclusivo uso privado y con propósito meramente educativo, se prohibe su reproducción y uso con fines comerciales