La Revolución

Acordes de la canción 'La Revolución' de Hillsong United

Versiones de esta canción: Tablatura para guitarra (TAB) - Tablatura para guitarra (TAB) - Letra y acordes - Tablatura para bajo (bass tab) - Tablatura para bajo (bass tab) - Tablatura para guitarra (TAB)

***REVOLUCION***

Intro::::
e----------------------------------------------------------
B-14-14-14-14----12-12-12-12-----11-11-11-11---12-12-12-12-
G-11-11-11-11----11-11-11-11-----11-11-11-11---11-11-11-11-
D----------------------------------------------------------
A----------------------------------------------------------
E----------------------------------------------------------

C# . . . . .Bbm5/D

e---------------------------------------------------------
B-12-12-12-12---11-11-11-11---9--9--9--9-----12-12-12-12--
G-11-11-11-11---11-11-11-11---10-10-10-10----10-10-10-10--
D---------------------------------------------------------
A---------------------------------------------------------
E---------------------------------------------------------

F#

INSTRUMENTAL::::
e---------------------------------------------
B-----------14-14-14-14-----------12-12-12-12-
G------11-11-----------------11-11------------
D-13-13-----------------13-13-----------------
A---------------------------------------------
E---------------------------------------------

D#

e---------------------------------------------
B-----------11-11-11-11-----------12-12-12-12-
G------11-11-----------------11-11------------
D-13-13-----------------13-13-----------------
A---------------------------------------------
E---------------------------------------------

C# . . . . Bmb5/D

e---------------------------------------------
B-----------12-12-12-12-----------11-11-11-11-
G------11-11-----------------11-11------------
D-11-11-----------------11-11-----------------
A---------------------------------------------
E---------------------------------------------
F#
e---------------------------------------------
B-----------9-9-9-9-----------12-12-12-12-----
G------10-10-------------10-10----------------
D-11-11-------------12-12---------------------
A---------------------------------------------
E---------------------------------------------

C# . . . . .Bmb5/D

BRIDGE:::
e--------------------------------
B--------------------------------
G-------6-6-6-6-------6-6-6-6----
D----4-4-----------4-4-----------
A-6-6-----------6-6--------------

D#

e-------------------------------------------------------------
B-------------------------------------------------------------
G-------6-6-6-6--------6-6-6-6---------6-6-6-6--------6-6-6-6-
D----4-4------------4-4------------4-4------------4-4---------
A-2-2-----------2-2-------------------------------------------
E-------------------------------6-6------------6-6------------
Badd9

F#/A#
e-------------------------------------------------------------
B--------6-6--------------------------------------------------
G----6-6----6-6--------7-7-----------------4-4------------4-4-
D-----------------8-8-------8-8---------4-4------------4-4----
A-4-4----------5-5-------------4-4-6-6---------4-4-6-6--------
E-------------------------------------------------------------

Aki les dejo otra cancion y agreguenme oviwan_x10@hot....
byee Dios Los Bendiga
Versión 2 - La Revolución (Tablatura para guitarra (TAB))
Ps Está Canción, la Arreglé par mi Hermanito Niko!!!!
Lo kieor muxo hermanito!!

(intro)
B-14-14-14-14----12-12-12-12-----11-11-11-11---12-12-12-12-
G-11-11-11-11----11-11-11-11-----11-11-11-11---11-11-11-11-
D----------------------------------------------------------
A----------------------------------------------------------
E----------------------------------------------------------

e----------------------------------------------------------
B-12-12-12-12---11-11-11-11---9--9--9--9-----12-12-12-12---
G-11-11-11-11---11-11-11-11---10-10-10-10----10-10-10-10---
D----------------------------------------------------------   (X2)
A----------------------------------------------------------
E----------------------------------------------------------


D#m
Generación de salvación, vamos.
e--------------------------------------------------
B-----------14-14-14-14-----------12-12-12-12------
G------11-11-----------------11-11-----------------
D-13-13-----------------13-13----------------------
A--------------------------------------------------
E--------------------------------------------------

D#m
Avivamiento vamos a ver,

Nada nos podrá parar.
e----------------------------------------------
B-----------14-14-14-14-----------12-12-12-12--
G------11-11-----------------11-11-------------
D-13-13-----------------13-13------------------
A----------------------------------------------
E----------------------------------------------


G#m                       B
Nos levantaremos para proclamar

  F#      B       G#m7
 Que Jesús es el Señor,
D#m                   F#         B
como Él no hay otro, vamos a gritar,
G#m7
Que el mundo pueda ver.

B-14-14-14-14----12-12-12-12-----11-11-11-11---12-12-12-12-
G-11-11-11-11----11-11-11-11-----11-11-11-11---11-11-11-11-
D----------------------------------------------------------
A----------------------------------------------------------
E----------------------------------------------------------

e--------------------------------------------------------
B-12-12-12-12---11-11-11-11---9--9--9--9-----12-12-12-12-
G-11-11-11-11---11-11-11-11---10-10-10-10----10-10-10-10-
D--------------------------------------------------------
A--------------------------------------------------------
E--------------------------------------------------------

   D#m
 Generación de salvación, vivo por ti.
e-------------------------------------------------------
B-----------14-14-14-14-----------12-12-12-12-
G------11-11-----------------11-11-----------------
D-13-13-----------------13-13----------------------
A-------------------------------------------------------
E--------------------------------------------------------



D#m
Avivamiento vamos a ver,

Nada nos podrá parar.
e----------------------------------------------
B-----------14-14-14-14-----------12-12-12-12--
G------11-11-----------------11-11-------------
D-13-13-----------------13-13------------------
A----------------------------------------------
E----------------------------------------------

G#m                       B
Nos levantaremos para proclamar
   F#   B          G#m7
 Que Jesús es el Señor,
       D#m           F#          B
como Él no hay otro, vamos a gritar,
G#m7
Que el mundo pueda ver.
F#       B        G#m7
Que Jesús es el Señor,
        D#m           F#        B
como Él no hay otro, vamos a gritar,
G#m7
Que el mundo pueda ver.



e----------------------------------------------
B-----------14-14-14-14-----------12-12-12-12--
G------11-11-----------------11-11-------------
D-13-13-----------------13-13------------------
A----------------------------------------------
E----------------------------------------------

e----------------------------------------------
B-----------11-11-11-11-----------12-12-12-12--
G------11-11-----------------11-11-------------
D-13-13-----------------13-13------------------
A----------------------------------------------
E----------------------------------------------

e----------------------------------------------
B-----------12-12-12-12-----------11-11-11-11--
G------11-11-----------------11-11-------------
D-11-11-----------------11-11------------------
A----------------------------------------------
E----------------------------------------------

e----------------------------------------------
B-----------9-9-9-9-----------12-12-12-12------
G------10-10-------------10-10-----------------
D-11-11-------------12-12----------------------  ( All X2)
A----------------------------------------------
E----------------------------------------------




D#m
Esta la generación,

vivimos por tu nombre, oh Dios.


e--------------------------------
B--------------------------------
G-------6-6-6-6-------6-6-6-6----
D----4-4-----------4-4-----------
A-6-6-----------6-6--------------

D#m
Esta es la revolución,

El mundo vamos a cambiar.
e--------------------------------
B--------------------------------
G-------6-6-6-6-------6-6-6-6----
D----4-4-----------4-4-----------
A-6-6-----------6-6--------------

Que el mundo pueda ver,  Que el mundo pueda ver
e-------------------------------------------------------------
B-------------------------------------------------------------
G-------6-6-6-6--------6-6-6-6---------6-6-6-6--------6-6-6-6-
D----4-4------------4-4------------4-4------------4-4---------
A-2-2-----------2-2-------------------------------------------
E-------------------------------6-6------------6-6------------

                          Que vivimos por ti con todo nuestro ser
e---------------------------------------------------------------
B--------6-6----------------------------------------------------
G----6-6----6-6--------7-7-----------------4-4------------4-4---
D-----------------8-8-------8-8---------4-4------------4-4------
A-4-4----------5-5-------------4-4-6-6---------4-4-6-6----------(X2)
E---------------------------------------------------------------

D#m
Que el mundo pueda ver,
B
Que el mundo pueda ver.
F#     B          G#m7
 Que Jesús es el Señor,
     D#m             F#          B
como Él no hay otro, vamos a gritar,
G#m7
Que el mundo pueda ver.
F#    B          G#m7
Que Jesús es el Señor,
D#m                  F#            B
como Él no hay otro, vamos a gritar,
G#m7
Que el mundo pueda ver.

F#
Que el mundo pueda ver,

B
Que el mundo pueda ver,

F#
Que el mundo pueda ver,
B                      F#
Esta es la revolución   [X2]
Versión 3 - La Revolución (Letra y acordes)
(intro) // D#m C#/F -F#sus F# C# A#/D //

D#m F#
(verso 1) Generación de salvación, vamos.
D#m
Avivamiento vamos a ver,
F#
Nada nos podrá parar.

G#m B
(Pre-c) Nos levantaremos para proclamar

F# B G#m7
(coro) Que Jesús es el Señor,
D#m F# B
como Él no hay otro, vamos a gritar,
G#m7
Que el mundo pueda ver.

D#m F#
(V2) Generación de salvación, vivo por ti.
D#m
Avivamiento vamos a ver,
F#
Nada nos podrá parar.

(pre-coro + coro x2) (intro)

D#m
(puente) Esta la generación,
F#
vivimos por tu nombre, oh Dios.
D#m
Esta es la revolución,
F#
El mundo vamos a cambiar.

D#m
(puente2) //Que el mundo pueda ver,
B F#
Que el mundo pueda ver
C# A#/D
Que vivimos por ti con todo nuestro ser.//
D#m
Que el mundo pueda ver,
B
Que el mundo pueda ver.
(coro x2)

F# B
(fin) //Que el mundo pueda ver,
G#m D#m
Que el mundo pueda ver,
F# B
Que el mundo pueda ver,
G#m D#m (B 2ª vez)
Esta es la revolución.//
Versión 4 - La Revolución (Tablatura para bajo (bass tab))
Hola a todos, esta es mi primera colaboracion y tambien es la
primera cancion que saco a oido, asi que disculpen los errores,
califiquenmela por favor y espero que este bien.
Nota: Lo que esta entre parentesis son las veces que se toca
la nota.

INTRO
E|----------------------------
A|--6(14)---------4(4)-5(4)---
D|-------3(2)-4(8)------------
G|----------------------------

VERSO 1
E|-----------------------------------------------
A|--6(4)---------------6(4)----------------------  X 2
D|-----------8(4)-9(4)-----------8(4)-9(4)---999~
G|------8(4)----------------8(4)-----------------

PRE-CORO
E|--4(4)------7(8)--
A|-------6(4)-------
D|------------------
G|------------------

CORO
E|--2-2---2--2--4-4---4--4--2-2---2--2---
A|------22-22-------66-66-------22-22----
D|---------------------------------------
G|-------------------------------------1~

INTRO
VERSO 2 (se toca igual que el 1)
PRE-CORO
CORO X 2
INTRO X 2

PUENTE 1
E|------------------------2-22-2-22-2-
A|-----2222--------2222---------------
D|--1-1----1-1--1-1----1-1----4----4--
G|------------------------------------

PUENTE 2
E|-----------------------------------------------4(8)------
A|------2(8)-1(8)-4(4)---------2(8)-1(8)-4(4)--------2(8)--
D|--1(8)--------------0(4)-1(8)--------------0(4)----------
G|---------------------------------------------------------

CORO X 2

FIN
E|--2-2---2--2--4-4---4--4--2-2--2--2--4-4-4-4------------
A|------22-22-------66-66------22-22-----------(2)--------  X 2
D|---------------------------------------------(1-1-1-1)--
G|--------------------------------------------------------
NOTA: El final se repite 2 veces, solo que se cambian las
ultimas partes que estan entre parentesis, la primera vez
se toca D# y la segunda se toca B.

Saludos a todas las Iglesias de Dios en Mexico y en
latinoamerica.Dios les Bendiga a todos y agregenme al
msn para que me den unas clasecitas, soy principiante.
-=Carlos Alberto=-
Versión 5 - La Revolución (Tablatura para bajo (bass tab))
Hillsong United - La Revolución

Estos tabs estan muy sencillos ok disfrutenlos

Intro: Bateria y bajo
G|-----------------------------------------------|
D|-1(x14)--3-3--4(x8)----------------------------|
A|---------------------4-4-4-4-5-5-5-5-----------|
E|-----------------------------------------------|



versos: (el bajeo debe ser muy rapido)

G|---------8-8-8-8----------------------|
D|-----------------8-8-8-8-9-9-9-9------|
A|-6-6-6-6------------------------------|  x2
E|--------------------------------------|

G|-------------------------------------------------------------|
D|-------------------------------------------------------------|
A|-9-9--9-9-9--9-9-9--9-9-9--9-9-9--9-9-9--9-9-9--9--9-9-9-9---|
E|-------------------------------------------------------------|


G|---------8-8-8-8----------------------|
D|-----------------8-8-8-8-9-9-9-9------|
A|-6-6-6-6------------------------------|  x2
E|--------------------------------------|

G|-------------------------------------------------------------|
D|-------------------------------------------------------------|
A|-9-9--9-9-9--9-9-9--9-9-9--9-9-9--9-9-9--9-9-9--9--9-9-9-9---|
E|-------------------------------------------------------------|



Pre-coro: Nos levantaremos para pro...

G|----------------------------|
D|---------6-6-6-6------------|
A|-----------------2-2-2-2----|
E|-4-4-4-4--------------------|


Coro: Que Jesús como el no hay otro...

G|-----------------------------------------|
D|-----------------------------------------|
A|-----2-2-2-------6-6-6-------------2-2-2-|
E|-2-2-------4-4----------7-7-7---22--------|


Despues el bajo ace

-Intro.
-versos.
-pre-coro
-coro.x2
-Solo de guitarra y bajo
  lo mismo qe el intro x2

Esta es la generación

G|----------------------------------------------------|
D|----------------------------------------------------|
A|-6-6-----6-6--6-6-----6-6---4--6--8--9--4--6--8--9--|
E|-----6-6----------6-6-----6-------------------------| x2

Que el mundo pueda ver
G|-------------------------------------------------------------------|
D|-------------------------------------------------------------------|
A|-6-6-6-6-6-6-6-6-2-2-2-2-2-2-2-2-1-1-1-1-1-1-1-1-4-4-4-4-5-5-5-5---|
E|-------------------------------------------------------------------|x2

Que el mundo pueda ver!!
G|---------------------------------------------------------------|
D|---------------------------------------------------------------|
A|-----------------2-2-2-2-2-2-2-2-------------------------------|
E|-4-4-4-4-4-4-4-4-----------------------------------------------|


Coro x2

Final:

Que el mundo pueda ver

G|--------------------------------|
D|--------------------------------|
A|-------2-2-2-2---------2--------|
E|-2-2-2---------4-4-4-4----------|



Saludos! Dios les bendiga
Versión 6 - La Revolución (Tablatura para guitarra (TAB))
Intro:
e|---------------------------------
b|-14-12-11-12--12-11--9---12------
g|-11-11-11-11--11-11--10--10------
d|---------------------------------
a|---------------------------------
e|---------------------------------
Acordes: D#, F#, C#, Bmb/D


Verso:
e|---------
b|-7-------
g|-6--(x8)-
d|---------   Nota: Se rasgea y despues se ahogan las cuerdas
a|-6-------
e|---------

e|-----------------
b|-----------------
g|-6--8--10--11----
d|----------------- (x2)
a|-4--6--8---9-----
e|-----------------

Pre-coro:
e|-----
b|--9--
g|--8--
d|--9--
a|-----
e|-----
Bm

Coro:

Acordes: F# B G#m D#
          F# B G#m -

Instrumental
e|-------------------------
b|-------14-14-------12-12-
g|----11----------11-------
d|-13----------13----------
a|-------------------------
e|-------------------------
D#

e|-------------------------
b|-------11-11-------12-12-
g|----11----------11-------
d|-13----------13----------
a|-------------------------
e|-------------------------

---------------------------
--------12-12--------11-11-
----11------------11-------
-11------------11----------
---------------------------
---------------------------
F#

---------------------------
--------9-9----------12-12-
----10-----------10--------
-11-----------12-----------
---------------------------
---------------------------
C# . . . . .Bbm5/D

Puente:
La Primera parte usa las mismas pisadas que el Verso
Segunda Parte- con delay
---------------------
---------------------
-----6-6------6-6----
---4--------4--------
-6--------6----------
---------------------
D#

---------------------
---------------------
-----6-6------6-6----
---4--------4--------
-2--------2----------
---------------------
Badd9

---------------------
---------------------
-----6-6------6-6----
---4--------4--------
---------------------
-6-------6-----------
F#/A#

------------------
-----6------------
---6---6------7--- se glisa al traste 8
------------8---8-
-4--------5-------
------------------
C# . . .A#/D

Se Repite y Despues esto:

------------
--------4---
------4-----
-4--6-------
------------
------------

Saludos! hermanos en cristo!

El material contenido en esta página es para exclusivo uso privado y con propósito meramente educativo, se prohibe su reproducción y uso con fines comerciales