Introducción

Acordes de la canción 'Introducción' de Hillsong United

Versiones de esta canción: Tablatura para guitarra (TAB) - Tablatura para guitarra (TAB)

Practiquen el picking y escuchen muy bien la cancion, aqui les dejo las
cuerdas que van a tocar mas no la veces del picking, esto es solo para
que se guien!


1ra GUITARRA:
El efecto es un delay, escuchen bien la cancion para agarrar el tiempo!

1ra parte:

E||--------------7-9-------7-9------------------------------|
B||--10-10-10-10-----9-9-9-----7-7-7-10-10-9-9-6-6-6-6-6----| x2
G||---------------------------------------------------------|

2da parte: Esta parte toquenla 1ro sin la cancion para que se aprendan
la melodia, luego pongan la cancion a todo volumen para que puedan
escuchar y agarrar el tiempo!

E||--------10-10-9-9-7-7-10-10-------10-10-9-9-7-7-10-10----|
B||--7-7-7---------------------6-6-6------------------------|
G||---------------------------------------------------------|


E||--------10-10-9-9-7-7-10-10-------10-10-9-9-7-7-10-10----|
B||--7-7-7---------------------9-9-9------------------------|
G||---------------------------------------------------------|

3ra parte: Al final de esta parte sen quedan en "B-10"

E||--------------------------------9-10-10-10-12-12-12--------|
B||--12-12-12-14-14-14-10-10-10-12---------------------10-12--|
G||-----------------------------------------------------------|

E||--10-10-10-12-12-12-9-9-9-------10-10-10-12-12-12----------|
B||--------------------------10-12-------------------10-10-10-|
G||-----------------------------------------------------------|



2da GUITARRA:
El efecto sigue siendo delay pero con una distorsion un poco fuerte,
solo un poco! El pick debe ser un poco mas lento que el de la 1ra
guitarra!

1ra parte: Esto entra despues de una vuelta de la 1ra parte de la
guitarra 1..!

E||---------------------------------------------------------|
B||--7-7-7-7-7--5-5-5-5-5--7-7-7-7-7-7--5-5-5-5-5-----------|
G||---------------------------------------------------------|

2da parte:

E||---------------------------------------------------------|
B||--3-3-3-3s5-5-5-5s2-2-2-2-3-3-3-3s5-5-5-5-5--------------| x2
G||---------------------------------------------------------|

3ra parte:

E||---------------------------------------------------------|
B||--12-12-12-14-14-14-10-10-10s9-9-9s----------------------| x4
G||---------------------------------------------------------|



3ra GUITARRA:
Son los acordes de fondo, el efecto es solo distorsion no muy fuerte!
Esta entra al mismo tiempo que la 2da guitarra!

1ra parte:

      F#m       E        D        E
E| |--------|--------|--------|--------|
B| |--------|--------|--------|--------|
G| |-----11-|-----9--|-----7--|-----9--|
D|X|--------|--------|--------|--------|
A| |--9-----|--7-----|--5-----|--7-----|
E|X|--------|--------|--------|--------|

2da parte:

       D        E deslizar C#      D        E
E| |--------|--------|--------|--------|--------|
B| |--------|--------|--------|--------|--------|
G| |-----7--|-----9--|-----6--|-----7--|-----9--|  x2
D|X|--------|--------|--------|--------|--------|
A| |--5-----|--7-----|--4-----|--5-----|--7-----|
E|X|--------|--------|--------|--------|--------|

3ra parte:

      F#m       A       Bm        A       Bm        A
E| |--------|--------|--------|--------|--------|--------|
B| |--------|--------|--------|--------|--------|--------|
G| |-----11-|--6-----|-----4--|--6-----|-----4--|--6-----|
D| |--------|-----7--|--------|-----7--|--------|-----7--|
A| |--9-----|-----7--|--2-----|-----7--|--2-----|-----7--|
E|X|--------|--------|--------|--------|--------|--------|

        D       E        D
E| |--------|--------|--------|
B| |--------|--------|--------|
G| |-----7--|-----9--|-----7--|
D|X|--------|--------|--------|
A| |--5-----|--7-----|--5-----|
E|X|--------|--------|--------|

Para mi esto es lo mas cercano que he podido sacar de la original, no se
si estos seran los vedaderos acordes y el picking original..!
Espero que les sirva de algo!

Cualquier correcion este es mi correo david_david13@hotmail.com
DIOS LES BENDIGA

Saludos a todos los miembros de la Iglesia "Roca FUerte"
QUE VIVA VENEZUELA!!!!!!!
Versión 2 - Introducción (Tablatura para guitarra (TAB))
uNidOs PoR Una CAusA

e--------------------------------------------------
b-------------------12-14--------------------12-14-
G-14-14-14-14-14-14--------13-13-13-13-13-13-------

e------------------------------------------
b------------------------------------------
G-11-11-11-11-11-11-14-13--9-9-9-9-9-9-9-9-

procurar tocar con un sweet picking o como seaa rapidooo

e---------------------------------
b-3---3---3---3---3---3---5---5---
G-6b7-6b7-6b7-6b7-6b7-6b7-8b9-8b9-

e---------------------------------
b-2---2---2---2---2---2---2---2---
G-5b6-5b6-5b6-5b6-5b6-5b6-5b6-5b6-

e---------------------------------
b-3---3---3---3---3---3---3---3---
G-6b7-6b7-6b7-6b7-6b7-6b7-6b7-6b7-

e---------------------------------
b-5---5---5---5---5---5---5---5---
G-8b9-8b9-8b9-8b9-8b9-8b9-8b9-8b9-

tener en claro los tiempo

e--------------------------------------------------
b-12-12-12-12-12-12-14-14-----------------------14-
G--------------------------14-14-14-14-14-14-16----

e----------------------14----------------------------
b-15-15-15-15-15-15-17-----17-17-17------------------
G-----------------------------------14-13-13-14-14---

e--------------------------------------------------
b-15-15-15-15-15-15-17-17--14-14-14-14-14-14----14-
G--------------------------------------------16----

e-----------------------------------17-16-16-17-17-
b-15-15-15-15-15-15-15-15--17-17-17----------------
G--------------------------------------------------

e---------------------------------
b-10-10-10-10-10-10-10-10---------
G---------------------------------

En esta ultima parte dar fuerza al principioo con movimientos
mas rapidos de uñeta

esta tab suena igualmente sii se toca junto al tema
espero que sea de bendiciones para sus vidas

Los amo Mucho
Vamos a conquistarlossssss

El material contenido en esta página es para exclusivo uso privado y con propósito meramente educativo, se prohibe su reproducción y uso con fines comerciales