In your freedom

Acordes de la canción 'In your freedom' de Hillsong United

Versiones de esta canción: Tablatura para guitarra (TAB) - Letra y acordes - Letra y acordes

hola soy jose beltran soy nuevo colaborador de la cuerda espero q
mi trabajo les guste
**********************************************************************
en la intro y la estrofa solo se usa la cuerda e y g

intro:
e-3-------5---------7---------2   e-3-------5---------7
g-4-------6---------7---------2   g-4-------6---------7

estrofa:
e-3-------5---------7---------2
g-4-------6---------7---------2
Te busco, Dios de poder
e-3-------5---------7
g-4-------6---------7
me postro a ti quebrantado
e-3-------5---------7---------2
g-4-------6---------7---------2
ningun otro rey vino con humildad
e-3-------5---------7
g-4-------6---------7
para sanar mi alma mi corazon

pre coro:
g-4-4-4-6-6-6-6-6-11-11-11-6-6-6-6-6-6-6
No tengo nada más que todo lo q tu me das
g-7-7-7-6-6-6-6-4-4-4-6-6-6-6-6-
no hay nada más que importe para mi

coro:

b-7-7-7-7-----------------------------------------------------
g----9-9-9----------------------------------------------------
d---------11-11-9-11-9-11-9-12-12-11-12-11-12-11-9-9-7-9-7-9-7

b-7-7-7-7-----------------------------------------------------
g----9-9-9----------------------------------------------------
d---------11-11-9-11-9-11-9-12-12-11-12-11-12-11-9------------

Te amo Dios
Me Salvaste
te quiero solo a ti
eres todo para mi

estrofa II:es lo mismo q la primera pero ya se toca simultaneamente

oro a ti dios de paz
descanso en ti mis cargas

pre coro:
g-4-4-4-6-6-6-6-6-11-11-11-6-6-6-6-6-6-6
No tengo nada más que todo lo q tu me das
g-7-7-7-6-6-6-6-4-4-4-6-6-6-6-6-
no hay nada más que importe para mi

coro:

D  A     Bm
Te amo Dios
   G
Me Salvaste
D  A      Bm
te quiero solo a ti
    G
eres todo para mi

solo:

b-7-7-7-7--------------------------------------------------------
g----9-9-9--------------------------------------11-12-14-11-12-16
d---------11-11-9-11-9-11-9-12-12-11-12-11-12-11-----------------

b-7-7-7-7---------------------9----10----12----14----15-------
g----9-9-9----------------------------------------------------
d---------11-11-9-11-9-11-9-11--------------------------------

puente:



en libertad vivere
en tu libertad yo vivire
te ofrezco devocion
te ofrezco devocion

b-7-7-7-7-----------------------------------------------------
g----9-9-9----------------------------------------------------
d---------11-11-9-11-9-11-9-12-12-11-12-11-12-11-9-9-7-9-7-9-7

b-7-7-7-7-----------------------------------------------------
g----9-9-9----------------------------------------------------
d---------11-11-9-11-9-11-9-12-12-11-12-11-12-11-9------------

coro:

D  A     Bm
Te amo Dios
   G
Me Salvaste
D  A      Bm
te quiero solo a ti
    G            D
eres todo para mi

esta es la vercion q tocan en mi iglesia espero q les guste
Versión 2 - In your freedom (Letra y acordes)
saludes desde Honduras a todos! esta es mi primera transcripcion
la otra esta bien pero solo le agregue unos acordes para que se
escuche mas original! solo tengo una duda en el pre-coro pero
lo demas esta bien saludes esta es una de mis rolas favoritas!




intro: G  A  Bm  D/F#

       G  A  Bm  ...


G          A               Bm  D/F#
Te busco a Ti, Dios Consolador
G          A            Bm
Postrado estoy en humildad
          G              A            Bm  D/F#
Y no hay otro dios que pueda en mi sanar
  G            A                Bm   A
Este pobre corazón y mi alma salvar


PRE-CORO

Bm        A         D            A
  No tengo nada más que lo que me has dado tú
Bm           A    G        A           D
y no hay nada más que lo que has hecho en mí

D   A     Bm
Te amo Dios
      G       D
Me Salvaste a mi
         A         Bm
Lo que soy es por ti
        G        D
Lo que tengo es por ti

G            A          Bm    D/F#
Me postro a ti, Dios de Paz
G           A               Bm  A
Mis cargas yo las pongo en ti.

Pre-Coro:

Coro:


Puente:
G              D/F#
Viviré en libertad
              Bm
Viviré en libertad
               D/F# G
Para darte adoración
               D/F#  G
Para darte adoración

Es mi versión de IN YOUR FREEDOM... espero que les guste
Versión 3 - In your freedom (Letra y acordes)
G          A               Bm   F#m
Te busco a Ti, Dios Consolador
G          A            Bm
Postrado estoy en humildad
          G              A            Bm  F#m
Y no hay otro dios que pueda en mi sanar
  G            A                Bm   A
Este pobre corazón y mi alma salvar

Bm            F#m   D               A
No tengo nada más que lo que me has dado tú
Bm          F#m   G         A           D
y no hay nada más que lo que has hecho en mí

D   A     Bm
Te amo Dios
      G       D
Me Salvaste a mi
         A         Bm
Lo que soy es por ti
        G        D
Lo que tengo es por ti

G            A          Bm    F#m
Me postro a ti, Dios de Paz
G           A               Bm  F#m
Mis cargas yo las pongo en ti.

Pre-Coro:

Coro:


Puente:
              D
Viviré en libertad
              Bm7
Viviré en libertad
               D/F# G
Para darte adoración
               D/F#  G
Para darte adoración

Es mi versión de IN YOUR FREEDOM... espero que les guste

El material contenido en esta página es para exclusivo uso privado y con propósito meramente educativo, se prohibe su reproducción y uso con fines comerciales