Hosanna

Acordes de la canción 'Hosanna' de Hillsong United

Versiones de esta canción: Tablatura para guitarra (TAB) - Tablatura para guitarra (TAB) - Tablatura para bajo (bass tab) - Letra y acordes - Letra y acordes - Letra y acordes

Intro
-----4-------4------------------
---5-----5h7---------4-------4--
-6-----6-----------4-----4h6----
-----------------6-----6--------
--------------------------------
--------------------------------

--------------------------------
-------5---5--------4--------4--
-----6-------6----4------4h6----
-6s7-----7------6------6--------
--------------------------------
--------------------------------

-----4-------4------------------
---5-----5h7---------4-------4--
-6-----6-----------4-----4h6----
-----------------6-----6--------
--------------------------------
--------------------------------

-----------7-------------9------
-------5-----5------7------7----
-----6------------8-------------
-6s7-----7------9------9--------
--------------------------------
--------------------------------

Acordes: C#m E F#m G#m

Verso
-----12------4-----------------
---9-------5--------2--4-------
-9-------6--------2------4---4-
----------------4----------4---
-------------------------------
-------------------------------

Pre-Verso
-----4-----4-----4-----7-----5---4-
---5-----5-----5-----5-----5-------
-6-----6-----6-----6-----6-----6---
-----------------------------------
-----------------------------------
-----------------------------------

acorde: C#m

Coro:
-----0-------0-------0-------0-----
---0---0---0---0---0---0---0---0---
-----------------------------------
-----------------------------------
---------0-------2-------4---------
-4---------------------------------

-----0-------0-------0-------0-----
---0---0---0---0---0---0---0---0---
-----------------------------------
-----------------------------------
-0-------4-------2-------2---------
-----------------------------------

-----0-------0-------0-------0-----
---0---0---0---0---0---0---0---0---
-----------------------------------
-----------------------------------
---------0-------2-------4---------
-4---------------------------------

-----0-------0---
---0---0---0---0-
-----------------
-----------------
-0-------2-------
-----------------

acordes:
E/G# A B C#m
A C#m B B

E/G# A B C#m
A B



Instrumental
--------------------------------
-12-12-12-12-12-9-7-9--(x2)-----
--------------------------------
--------------------------------
--------------------------------
--------------------------------

--------------------------------------
-10-10-10-10-10-9-7-5-4-4-4-4-5-5-7-7-
--------------------------------------
--------------------------------------
--------------------------------------
--------------------------------------

--------------------------------
-12-12-12h14-12-12-9-7-9-(x2)---
--------------------------------
--------------------------------
--------------------------------
--------------------------------

-------11----11----11-12-14-14-14-14-14-14-14-14-
-10-10----10----10-------------------------------
-------------------------------------------------
-------------------------------------------------
-------------------------------------------------
-------------------------------------------------

Acordes:
C#m E F#m G#m

Puente
Acordes:
A B E C#m
A B C#m C#m

--------------------------------
-------9-----------10----9------
-------11b13--(x3)-13b14-11b13--
-11-11--------------------------
--------------------------------
--------------------------------

Despues Del Puente:
---------9--------------9--------------
------12---12--------12---12--------12-
----9---------9----9---------9----9----
-11-------------11-------------11------
---------------------------------------
---------------------------------------
Versión 2 - Hosanna (Tablatura para guitarra (TAB))
Hola que tal, primero q nada quiero decir q mando esta
transcripcion mejorando la traduccion ya que para mi esta
traduccion tiene mas sentido
y sobre todo mejor tiempo musical.

 Dios los Bendice!


Intro: C#m  E  F#m G#m   x2


e-----4-------4------------------
b---5-----5h7---------4-------4--
g-6-----6-----------4-----4h6----
D-----------------6-----6--------
A--------------------------------
E--------------------------------

e--------------------------------
b-------5---5--------4--------4--
g-----6-------6----4------4h6----
D-6s7-----7------6------6--------
A--------------------------------
E--------------------------------



e-----4-------4------------------
b---5-----5h7---------4-------4--
g-6-----6-----------4-----4h6----
D-----------------6-----6--------
A--------------------------------
E--------------------------------

e-----------7-------------9------
b-------5-----5------7------7----
g-----6------------8-------------
D-6s7-----7------9------9--------
A--------------------------------
E--------------------------------



  E
Veo al Rey De gloria
C#m
de los cielos descender.
          F#m        B         C#m **(Riff 1)
y la creacion estremecer.



e-----4-----4-----4-----7-----5---4-   (Riff 1)
b---5-----5-----5-----5-----5-------
g-6-----6-----6-----6-----6-----6---
D-----------------------------------
A-----------------------------------
E-----------------------------------


 E
Veo su amor y gracia,
C#m
en cada persona obrar
        F#m          B
la humanidad toda cantar


CORO: (ojo se toca con el riff 2)


//Hossana hossana,

hossana en lo alto//

(Riff 2)
e-----0-------0-------0-------0-----
b---0---0---0---0---0---0---0---0---
g-----------------------------------
D-----------------------------------
A---------0-------2-------4---------
E-4---------------------------------
Hosa-----na  Hossaa-------na


e-----0-------0-------0-------0-----
b---0---0---0---0---0---0---0---0---
g-----------------------------------
D-----------------------------------
A-0-------4-------2-------2---------
E-----------------------------------
Hossana
   en lo al-----to

e-----0-------0-------0-------0-----
b---0---0---0---0---0---0---0---0---
g-----------------------------------
D-----------------------------------
A---------0-------2-------4---------
E-4---------------------------------
Hossa---na     Hossa-----na


e-----0-------0---
b---0---0---0---0-
g-----------------
D-----------------
A-0-------2-------
E-----------------
Hossana en lo alto


 E
veo una generacion,
  C#m
levantandose ante a EL
          F#m           B
con una  Fe confiada en EL.


E
veo un avivamiento
   C#m                               F#m
conmoviendo  el corazon, postrado a Dios
       B
en oracion


   E-A    B      C#m
Hosanna,  Hosanna
A            C#m    B
Hosanna en lo alto
E - A     B       C#m
Hosanna,   Hosanna
A            B        C#m
Hosanna en lo alto

Puente--A B E C#m


 A              B
Saname y limpiame,
    E                 C#m
quiero ver las cosas q nunca vi,
  A                   B
quiero amar tal como tu,
          C#m
me amaste

 A                     B     E
Descanso en ti mi corazon, todo lo que soy
         C#m         A                 B       C#m
por tu reino doy,caminar contigo oh Dios eterno



Dios los Bendiga, traduccion apegada a contexto
mensaje y tiempos musicales, cualquier duda o
comentario esta mi correo...
Versión 3 - Hosanna (Tablatura para bajo (bass tab))
Bendiciones, yo y un amigo sacamos la stabs
nos costo trabajo ya que pues no teniamos buen sistema de sonido
pero al fin la sacamos y se oye bien! n_n

califiquenme ustedes es mi primera colaboracion

tube que recortar las tabs para que en la impresion no saliera tan larga
pero si quieren las tabs como estan pidanlas a cualkiera de mis correos

Bajo Estandar: E,A,D,G.

Intro:
G|-----------------------------------------------------------------------|
D|-----------------------------------------------------------------------|
A|4-4-4-4-4-4-4-4-7-7-7-7-7-7-7-7-9-9-9-9-9-9-9-9-11-11-11-11-11-11-11-11|
E|-----------------------------------------------------------------------|

Verso I:
G|------------------------|
D|------------------------|
A|7(8)-4(8)------2(8)-4(6)|
E|----------2(8)----------|

G|---------------------------------------------------------------|
D|---------------------------------------------------------------|
A|7-7-7-7-7-7-7-7-4-4-4-4-4-4-4-4-----------------2-2-2-2-2-2-2-2|
E|--------------------------------2-2-2-2-2-2-2-2----------------|

Coro Silencioso:
G|----------------------------------------|
D|----------------------------------------|
A|2/11-12-14-16-12-16-14-11-12-14-16-12-14|
E|----------------------------------------|

Relleno I:
G|---------------|
D|---------------|
A|4-4-4-4-4-4-4-4|
E|---------------|

Verso II:
G|------------------------|
D|------------------------|
A|7(8)-4(8)------2(8)-4(6)|
E|----------2(8)----------|

G|---------------------|
D|---------------------|
A|----7(4)-4(8)----2(8)|
E|0(8)---------2(8)----|

Coro I: se toca x2
G|-------------------------------------------------------|
D|-------------------------------------------------------|
A|--------0-0-0-0-2-2-2-2-4-4-4-4-0-0-0-0-4-4-4-4-2-2-2-2|
E|4-4-4-4------------------------------------------------|
Intermedio Instrumental:x2
G|---------------------------------------------------------------|
D|---------------------------------------------------------------|
A|4-4-4-4-4-4-4-4-7-7-7-7-7-7-7-7--------------------------------|
E|--------------------------------2-2-2-2-2-2-2-2-4-4-4-4-4-4-4-4|

Puente: se toca x2
G|---------------------------------------------------------------|
D|---------------------------------------------------------------|
A|0-0-0-0-0-0-0-0-2-2-2-2-2-2-2-2-----------------4-4-4-4-4-4-4-4|
E|--------------------------------0-0-0-0-0-0-0-0----------------|

G|-----------------------------------------------|
D|-----------------------------------------------|
A|0-0-0-0-0-0-0-0-2-2-2-2-2-2-2-2-4-4-4-4-4-4-4-4|
E|-----------------------------------------------|

Relleno II:
G|------------|
D|------------|
A|12----------|
E|------------|

Coro II:
G|------------------------------------------------|
D|------------------------------------------------|
A|2/11-12-14-16-12-16-14-11-12-14-16-0(4)-2(4)-7(8|
E|------------------------------------------------|

G|-------------------------------------------------------|
D|-------------------------------------------------------|
A|--------0-0-0-0-2-2-2-2-4-4-4-4-0-0-0-0-4-4-4-4-2-2-2-2|
E|4-4-4-4------------------------------------------------|

G|--------------------------------------------|
D|--------------------------------------------|
A|----0(4)-2(4)-4(4)-0(4)-4(4)-2(4)-0(4)-4(4)-|
E|4(4)---------------------------------------0|

Espero que la disfruten y que Dios los bendiga!

dudas y sugerencias mi correo es:

de hotmail: josep_nesz@hotmail.com
de yahoo: clowd_nesz@yahoo.com.mx
de gmail: clowd.nesz@gmail.com
Versión 4 - Hosanna (Letra y acordes)
hola espero salga bien....
es la version en español y va asi
es el primer canto que subo. luego les mandare masss DIOS LOS BENDIGA

intro: C#m Emaj7 F#m G#m//

Eadd2                C#m
veo a rey de gloria viene con fuego y poder
         F#m7         G#m7     C#m
todos veran  todos veran

Eadd2                C#m
veo su amor y gracia mi pecado perdono
        F#m7         G#m7
le alabare   le alabare

coro:
  E/G#  A B    C#m A                 C#m  B  ( 2da vez se toca A B C#m)
//hosanna hosanna  hosanna en las alturas//

veo como se levanta una gran generacion (MISMA SECUENCIA DE ARRIBA)
//con compasion//

veo avivamiento al buscarte y al orar
//me postrare//

 coro:

  solo: C#m Emaj7 F#m7 G#m7//

   A              B   E/G#                   C#m
  saname y limpiame con mis ojos tus obras quiero ver
  A                  B        C#m
 quiero amarte como tu me amas
  A                 B  E/G#                     C#m
 muestrame tu corazon todo lo que soy por tu reino Dios
    A                      B          E
 contigo quiero estar por la eternidad

 coro: ( lento y luego sube de ritmo)

 final: E E/C#


cualquier duda comentario sugerencia regaño escribanme a
jonathan_1325_@hotmail.com DLB
Versión 5 - Hosanna (Letra y acordes)
Intro: C#m E F#m G#m //
E
VEO AL REY DE GLORIA
C#m
DE LOS CIELOS DESCENDER
F#m
LA CREACION
B      C#m
ESTREMECER
Arreglo: C#m E F#m G#m
E
VEO SUA MOR Y GRACIA
C#m
EN CADA PERSONA OBRAR
F#m      B
Y CANTAR Y CANTAR
E/G# A  B   C#m
HOSANNA HOSANNA
A       C#m         B
HOSANNA EN LAS ALTURAS
E/G# A  B   C#m
HOSANNA HOSANNA
A       C#m         B
HOSANNA EN LAS ALTURAS
Arreglo: C#m E F#m G#m
E
VEO UNA GENERACION
C#m
LISTA PARA CONQUISTAR
F#m          B
UN SOLO DIOS UNA VERDAD
C#m
VEO EL AVIVAMIENTO
E
COMENZANDO AL ORAR
F#m      E
Y ADORAR Y ADORAR

E/G# A  B   C#m
HOSANNA HOSANNA
A       C#m         B
HOSANNA EN LAS ALTURAS
E/G# A   B  C#m
HOSANNA HOSANNA
A       C#m         B
HOSANNA EN LAS ALTURAS
Arreglo: C#m E F#m G#m //
A                         B
MI CORAZON LO ENTREGO A TI
E                  C#m
PARA VER LAS COSAS QUE NUNCA VI
A           B
QUIERO AMAR TAL COMO TU
C#m
ME AMASTE
A           B
QUIEBRA HOY MI CORAZON
E               C#m
TODO LO QUE SOY POR TU REINO DOY
A         B
MUESTRAME LA SENDA DE
C#m
LO ETERNO
Arreglo: C#m E F#m G#m
   E/G# A  B   C#m
// HOSANNA HOSANNA
A       C#m         B
HOSANNA EN LAS ALTURAS
E/G# A  B   C#m
HOSANNA HOSANNA
A       C#m         B
HOSANNA EN LAS ALTURAS //
Versión 6 - Hosanna (Letra y acordes)
intro: C#m Emaj7 F#m G#m//

Eadd2                C#m
veo a rey de gloria viene con fuego y poder
         F#m7         G#m7     C#m
todos veran  todos veran

Eadd2                C#m
veo su amor y gracia mi pecado perdono
        F#m7         G#m7
le alabare   le alabare

coro:
  E/G#  A B    C#m A                 C#m  B  ( 2da vez se toca A B C#m)
//hosanna hosanna  hosanna en las alturas//

veo como se levanta una gran generacion (MISMA SECUENCIA DE ARRIBA)
//con compasion//

veo avivamiento al buscarte y al orar
//me postrare//

 coro:

  solo: C#m Emaj7 F#m7 G#m7//

   A              B   E/G#                   C#m
  saname y limpiame con mis ojos tus obras quiero ver
  A                  B        C#m
 quiero amarte como tu me amas
  A                 B  E/G#                     C#m
 muestrame tu corazon todo lo que soy por tu reino Dios
    A                      B          E
 contigo quiero estar por la eternidad

 coro: ( lento y luego sube de ritmo)

 final: E E/C#

intro: Dm  Fmaj7 Gm  Am //

FAdd2                Dm
veo a rey de gloria viene con fuego y poder
         Gm7          Am7      Dm
todos veran  todos veran

FAdd2                Dm
veo su amor y gracia mi pecado perdono
        Gm7          Am7
le alabare   le alabare

coro:
  F/A   A# C    Dm  A#                Dm   C  ( 2da vez se toca A# C Dm)
//hosanna hosanna  hosanna en las alturas//

veo como se levanta una gran generacion (MISMA SECUENCIA DE ARRIBA)
//con compasion//

veo avivamiento al buscarte y al orar
//me postrare//

 coro:

  solo: Dm  Fmaj7 Gm7  Am7 //

   A#             C   F/A                    Dm
  saname y limpiame con mis ojos tus obras quiero ver
  A#                 C        Dm
 quiero amarte como tu me amas
  A#                C  F/A                      Dm
 muestrame tu corazon todo lo que soy por tu reino Dios
    A#                     C          F
 contigo quiero estar por la eternidad

 coro: ( lento y luego sube de ritmo)

 final: F F/D

intro: D#m F#maj7 G#m A#m//

F#add2               D#m
veo a rey de gloria viene con fuego y poder
         G#m7         A#m7     D#m
todos veran  todos veran

F#add2               D#m
veo su amor y gracia mi pecado perdono
        G#m7         A#m7
le alabare   le alabare

coro:
  F#/A# B C#   D#m B                 D#m  C#  ( 2da vez se toca B C# D#m)
//hosanna hosanna  hosanna en las alturas//

veo como se levanta una gran generacion (MISMA SECUENCIA DE ARRIBA)
//con compasion//

veo avivamiento al buscarte y al orar
//me postrare//

 coro:

  solo: D#m F#maj7 G#m7 A#m7//

   B              C#  F#/A#                  D#m
  saname y limpiame con mis ojos tus obras quiero ver
  B                  C#       D#m
 quiero amarte como tu me amas
  B                 C# F#/A#                    D#m
 muestrame tu corazon todo lo que soy por tu reino Dios
    B                      C#         F#
 contigo quiero estar por la eternidad

 coro: ( lento y luego sube de ritmo)

 final: F# F#/D#

intro: Em  Gmaj7 Am  Bm //

Gadd2                Em
veo a rey de gloria viene con fuego y poder
         Am7          Bm7      Em
todos veran  todos veran

Gadd2                Em
veo su amor y gracia mi pecado perdono
        Am7          Bm7
le alabare   le alabare

coro:
  G/B   C D    Em  C                 Em   D  ( 2da vez se toca C D Em)
//hosanna hosanna  hosanna en las alturas//

veo como se levanta una gran generacion (MISMA SECUENCIA DE ARRIBA)
//con compasion//

veo avivamiento al buscarte y al orar
//me postrare//

 coro:

  solo: Em  Gmaj7 Am7  Bm7 //

   C              D   G/B                    Em
  saname y limpiame con mis ojos tus obras quiero ver
  C                  D        Em
 quiero amarte como tu me amas
  C                 D  G/B                      Em
 muestrame tu corazon todo lo que soy por tu reino Dios
    C                      D          G
 contigo quiero estar por la eternidad

 coro: ( lento y luego sube de ritmo)

 final: G G/E

intro: Fm  G#maj7 A#m Cm //

G#add2               Fm
veo a rey de gloria viene con fuego y poder
         A#m7         Cm7      Fm
todos veran  todos veran

G#add2               Fm
veo su amor y gracia mi pecado perdono
        A#m7         Cm7
le alabare   le alabare

coro:
  G#/C  C# D#   Fm  C#                Fm   D#  ( 2da vez se toca C# D# Fm)
//hosanna hosanna  hosanna en las alturas//

veo como se levanta una gran generacion (MISMA SECUENCIA DE ARRIBA)
//con compasion//

veo avivamiento al buscarte y al orar
//me postrare//

 coro:

  solo: Fm  G#maj7 A#m7 Cm7 //

   C#             D#  G#/C                   Fm
  saname y limpiame con mis ojos tus obras quiero ver
  C#                 D#       Fm
 quiero amarte como tu me amas
  C#                D# G#/C                     Fm
 muestrame tu corazon todo lo que soy por tu reino Dios
    C#                     D#         G#
 contigo quiero estar por la eternidad

 coro: ( lento y luego sube de ritmo)

 final: G# G#/F

intro: F#m Amaj7 Bm  C#m//

Aadd2                F#m
veo a rey de gloria viene con fuego y poder
         Bm7          C#m7     F#m
todos veran  todos veran

Aadd2                F#m
veo su amor y gracia mi pecado perdono
        Bm7          C#m7
le alabare   le alabare

coro:
  A/C#  D E    F#m D                 F#m  E  ( 2da vez se toca D E F#m)
//hosanna hosanna  hosanna en las alturas//

veo como se levanta una gran generacion (MISMA SECUENCIA DE ARRIBA)
//con compasion//

veo avivamiento al buscarte y al orar
//me postrare//

 coro:

  solo: F#m Amaj7 Bm7  C#m7//

   D              E   A/C#                   F#m
  saname y limpiame con mis ojos tus obras quiero ver
  D                  E        F#m
 quiero amarte como tu me amas
  D                 E  A/C#                     F#m
 muestrame tu corazon todo lo que soy por tu reino Dios
    D                      E          A
 contigo quiero estar por la eternidad

 coro: ( lento y luego sube de ritmo)

 final: A A/F#

intro: Gm  A#maj7 Cm  Dm //

A#add2               Gm
veo a rey de gloria viene con fuego y poder
         Cm7          Dm7      Gm
todos veran  todos veran

A#add2               Gm
veo su amor y gracia mi pecado perdono
        Cm7          Dm7
le alabare   le alabare

coro:
  A#/D  D# F    Gm  D#                Gm   F  ( 2da vez se toca D# F Gm)
//hosanna hosanna  hosanna en las alturas//

veo como se levanta una gran generacion (MISMA SECUENCIA DE ARRIBA)
//con compasion//

veo avivamiento al buscarte y al orar
//me postrare//

 coro:

  solo: Gm  A#maj7 Cm7  Dm7 //

   D#             F   A#/D                   Gm
  saname y limpiame con mis ojos tus obras quiero ver
  D#                 F        Gm
 quiero amarte como tu me amas
  D#                F  A#/D                     Gm
 muestrame tu corazon todo lo que soy por tu reino Dios
    D#                     F          A#
 contigo quiero estar por la eternidad

 coro: ( lento y luego sube de ritmo)

 final: A# A#/G

intro: G#m Bmaj7 C#m D#m//

Badd2                G#m
veo a rey de gloria viene con fuego y poder
         C#m7         D#m7     G#m
todos veran  todos veran

Badd2                G#m
veo su amor y gracia mi pecado perdono
        C#m7         D#m7
le alabare   le alabare

coro:
  B/D#  E F#   G#m E                 G#m  F#  ( 2da vez se toca E F# G#m)
//hosanna hosanna  hosanna en las alturas//

veo como se levanta una gran generacion (MISMA SECUENCIA DE ARRIBA)
//con compasion//

veo avivamiento al buscarte y al orar
//me postrare//

 coro:

  solo: G#m Bmaj7 C#m7 D#m7//

   E              F#  B/D#                   G#m
  saname y limpiame con mis ojos tus obras quiero ver
  E                  F#       G#m
 quiero amarte como tu me amas
  E                 F# B/D#                     G#m
 muestrame tu corazon todo lo que soy por tu reino Dios
    E                      F#         B
 contigo quiero estar por la eternidad

 coro: ( lento y luego sube de ritmo)

 final: B B/G#

intro: Am  Cmaj7 Dm  Em //

Cadd2                Am
veo a rey de gloria viene con fuego y poder
         Dm7          Em7      Am
todos veran  todos veran

Cadd2                Am
veo su amor y gracia mi pecado perdono
        Dm7          Em7
le alabare   le alabare

coro:
  C/E   F G    Am  F                 Am   G  ( 2da vez se toca F G Am)
//hosanna hosanna  hosanna en las alturas//

veo como se levanta una gran generacion (MISMA SECUENCIA DE ARRIBA)
//con compasion//

veo avivamiento al buscarte y al orar
//me postrare//

 coro:

  solo: Am  Cmaj7 Dm7  Em7 //

   F              G   C/E                    Am
  saname y limpiame con mis ojos tus obras quiero ver
  F                  G        Am
 quiero amarte como tu me amas
  F                 G  C/E                      Am
 muestrame tu corazon todo lo que soy por tu reino Dios
    F                      G          C
 contigo quiero estar por la eternidad

 coro: ( lento y luego sube de ritmo)

 final: C C/A

intro: A#m C#maj7 D#m Fm //

C#add2               A#m
veo a rey de gloria viene con fuego y poder
         D#m7         Fm7      A#m
todos veran  todos veran

C#add2               A#m
veo su amor y gracia mi pecado perdono
        D#m7         Fm7
le alabare   le alabare

coro:
  C#/F  F# G#   A#m F#                A#m  G#  ( 2da vez se toca F# G# A#m)
//hosanna hosanna  hosanna en las alturas//

veo como se levanta una gran generacion (MISMA SECUENCIA DE ARRIBA)
//con compasion//

veo avivamiento al buscarte y al orar
//me postrare//

 coro:

  solo: A#m C#maj7 D#m7 Fm7 //

   F#             G#  C#/F                   A#m
  saname y limpiame con mis ojos tus obras quiero ver
  F#                 G#       A#m
 quiero amarte como tu me amas
  F#                G# C#/F                     A#m
 muestrame tu corazon todo lo que soy por tu reino Dios
    F#                     G#         C#
 contigo quiero estar por la eternidad

 coro: ( lento y luego sube de ritmo)

 final: C# C#/A#

intro: Bm  Dmaj7 Em  F#m//

Dadd2                Bm
veo a rey de gloria viene con fuego y poder
         Em7          F#m7     Bm
todos veran  todos veran

Dadd2                Bm
veo su amor y gracia mi pecado perdono
        Em7          F#m7
le alabare   le alabare

coro:
  D/F#  G A    Bm  G                 Bm   A  ( 2da vez se toca G A Bm)
//hosanna hosanna  hosanna en las alturas//

veo como se levanta una gran generacion (MISMA SECUENCIA DE ARRIBA)
//con compasion//

veo avivamiento al buscarte y al orar
//me postrare//

 coro:

  solo: Bm  Dmaj7 Em7  F#m7//

   G              A   D/F#                   Bm
  saname y limpiame con mis ojos tus obras quiero ver
  G                  A        Bm
 quiero amarte como tu me amas
  G                 A  D/F#                     Bm
 muestrame tu corazon todo lo que soy por tu reino Dios
    G                      A          D
 contigo quiero estar por la eternidad

 coro: ( lento y luego sube de ritmo)

 final: D D/B

intro: Cm  D#maj7 Fm  Gm //

D#add2               Cm
veo a rey de gloria viene con fuego y poder
         Fm7          Gm7      Cm
todos veran  todos veran

D#add2               Cm
veo su amor y gracia mi pecado perdono
        Fm7          Gm7
le alabare   le alabare

coro:
  D#/G  G# A#   Cm  G#                Cm   A#  ( 2da vez se toca G# A# Cm)
//hosanna hosanna  hosanna en las alturas//

veo como se levanta una gran generacion (MISMA SECUENCIA DE ARRIBA)
//con compasion//

veo avivamiento al buscarte y al orar
//me postrare//

 coro:

  solo: Cm  D#maj7 Fm7  Gm7 //

   G#             A#  D#/G                   Cm
  saname y limpiame con mis ojos tus obras quiero ver
  G#                 A#       Cm
 quiero amarte como tu me amas
  G#                A# D#/G                     Cm
 muestrame tu corazon todo lo que soy por tu reino Dios
    G#                     A#         D#
 contigo quiero estar por la eternidad

 coro: ( lento y luego sube de ritmo)

 final: D# D#/C

El material contenido en esta página es para exclusivo uso privado y con propósito meramente educativo, se prohibe su reproducción y uso con fines comerciales