Es Tiempo

Tabs, letra y acordes de 'Es Tiempo' por Hillsong United

Versiones disponibles: Tablatura para guitarra (TAB) - Letra y acordes - Tablatura para guitarra (TAB) - Tablatura para bajo (bass tab) - Tablatura para bajo (bass tab) - Tablatura para guitarra (TAB)

Hola.. version LIRIOS®music

esta bastante incompleto la version anterior..
ahi va bien completa.. espero q les sirva..


INTRO

primero empieza en el traste 10 (A o La)
si ustedes escuchan toca muchas veces..
yo pongo pocas para q no se haga muy largo..


INTRO 1(Repite 2 veces)

E--------------------------------------------------
B--10--10--10--10--12--12--14--14------------------
G---------------------------------13--13--13--13---

E---------------------------------------------------
B--12--12--14--14--------------------10--10--9--9--
G-----------------11--11--11--11-------------------9-9-9-9


aka las dos guitarras hacen las mismas notas..
pero uno hace grave (1era guitarra) y la otra
hace aguda(2da Guitarra).. yo les pongo la 1era..

INTRO 2 (Repite 2 veces)

E--------------------------------------------------
B--------------------------------------------------
G--7--7--7--7--7--7--7--7--9--9--7--7--6--6--6--6--
D--------------------------------------------------


E--------------------------------------------------
B--------------------------------------------------
G--7--7--7--7--7--7--7--7--9--9--9--9--9--9--9--9--
D--------------------------------------------------

ACUERDENSE!! toca muchas mas veces las notas..
yo nomas les pongo pocas para q no se haga muy
largo todo..


INTRO 3 (Repite 2 veces)

E--------------------------------------------------------------
B-12--12--12--12--12--12--12--12--10--10--10--10--10--10--10--10
G--------------------------------------------------------------

E------------------------------------12--12--12--12--12---
B--9--9--10--10--12--12--12--12---------------------------
G---------------------------------------------------------

E---------------------
B--9--9--10--10-------(HACE ESTO Y EMPIEZA OTRA VEZ LA INTRO 3)
G---------------------(ESTA PARTE NO HACE EN LA 2DA VEZ)


INTRO 4

E-----------------------------------
B-12--12--12--12--12--12--12--12---- (MUCHAS VECES "LA" HASTA
G-----------------------------------  EMPEZAR LA ESTROFA)


ES TIEMPO

ESTROFA
mientras canta "AMOR INEXPLICABLE, TU VIDA DISTE EN LA CRUZ"

cuando dice CRUZ ahi va esto..

E-----------9--9--9--9--9--9------------9--9--9--9--9--9--
B--7--7--7---------------------7--7--7------------------
G--------------------------------------------------------

E-----------9--9--9--9--9--9----------------------------------
B--5--5--5----------------------10--10--10--10--12--12--10--10
G-------------------------------------------------------------

"EN TU MISERICORDIA, ME DISTE VIDA DISTE AMOR, TU GRAN AMOR"
(hace lo mismo anterior)

PRE CORO

"ES TIEMPO DE..."

E-----------------------------
B--12-12-12-12--14-14-14-14---
G-----------------------------
D-----------------------------

"POR QUIEN VINO.. TE SEGUIRE MI ALABANZA TE DARE.."
esto va con efecto (Repite 3 veces)
E----------------------------------------------------
B--10-10-10-10--12-12-12-12--14-14-14-14--15-15-15-15
G----------------------------------------------------

CORO

A - F# - D - A
A - F# - D - A


INSTRUMENTAL (SOLO)


E-----------9--9--9--9--9--9------------9--9--9--9--9--9--
B--7--7--7---------------------7--7--7------------------
G--------------------------------------------------------

E-----------9--9--9--9--9--9----------------------------------
B--5--5--5----------------------10--10--10--10--12--12------
G-------------------------------------------------------------


E-----------9--9--9--9--9--9------------9--9--9--9--9--9--
B--7--7--7---------------------7--7--7------------------
G--------------------------------------------------------

E-----------9--9--9--9--9--9----------------------------------
B--5--5--5----------------------10--10--10--10--12--12--14--14
G-------------------------------------------------------------

(SOLO BAJO)

PUENTE

toca muchas mas veces.. yo les pongo pocas ACUERDENSE!

"TUYO SOY SEÑOR..."
E--9-9-9-9-9-9-9-9---10-10-10-10-10-10-10-10---9-9-9-9-9-9-9-9-9
B---------------------------------------------------------------
G--------------------------------------------------------------

E--5-5-5-5-5-5---7-7-7-7-7-7- (EMPIEZA OTRA VEZ EL PUENTE)
B---------------------------
G---------------------------


ESPERO QUE LES SIRVA DE ALGO...
AGUANTE HILLSONG..!!!
VISION DE CAMPEONES (Corrientes - Argentina) G12
Versión 2 - Es Tiempo (Letra y acordes)
TEMPO:147

INTRO:(acordes) F#m-E-D-E X2  Bm-F#m-D-E X2  F#m-A-Bm-A-Bm-F#m-D-E-A

(notas para guitarra) A,B,C#,G#,B,C#,F#,A,G#,E X2  D,E,C#deslis,D,E, X2

              B,A,G#,B,A, B, A, B,A
Estas notas se juntan: I  I  I  I I
                       E, DE,C#,D,E

A                                       F#m   D             A
Amor inexplicable, tu vida diste en la cruz, tuyo soy por siempre
                                          F#m  D          A
En tu misericordia, me diste vida, diste amor, tu gran amor

PRE-CORO
     E        F#m              D
Es tiempo de decidir por quien vivo
    E            F#m        D
Te seguire mi alabanza te dare, Jesús!!!!

CORO
    A
Por ti, por ti lo entrego todo
F#m                    D                     A
Solo a ti mi alabanza doy, toda mi alabanza doy
    A
Por ti, por ti es por quien vivo
    F#m                     D                     A
Te alabare con todo lo que soy, toda mi alabanza doy

PUENTE

F#-D-A X2  F#m-Bm-( `E` es de paso para el bajo ) X2

    F#m             Bm                D              A          E
/// Tuyo soy señor, vivo para darte gloria oh Dios, gloria y honor///

PRE-CORO

        E        F#m               D
// Es tiempo de decidir por quien vivo
    E            F#m         D
Te seguire mi alabanza te dare//

CORO X2

FINAL
                   F#m
// Con todo lo que soy
        D         A
Toda mi alabanza doy//
Versión 3 - Es Tiempo (Tablatura para guitarra (TAB))
INTRODUCCION: F#5 E5 D5 E5 (pueden usar octavas)
e------7-9---7-9-------------
B-10-10----9-----7---10-9----
G-------------------------9--x2

SEGUNDA PARTE: D5-E5 C#5 D5 E5
G-7---9--6-(4-6)-7---9-----------
xD-------------------------------
A-5---7--4-------5---7-----------x2

TERCERA PARTE: /F#5 A5 D5 E5/ A5
e-------------------------------------------
B-12-(14)-10--9-12-14--9-12--14-10---9-12--(9)-10-10-
G---------------------------------------------
se queda en A

B-10-10-10-------------------
        A5
/verso1: Amor inexplicable
                    F#m
Tu Vida diste en la cruz
D5                A5
Tuyo soy por siempre

e-----------------------------------
B---14--14---14---------------------
G-11--11--------10-12-14------------
D----------14-----------------------

B-10-10-10--------------------

       A5
Verso2: Y En Tu Misericordia
                      F#m
Me diste vida diste amor

e-----------------------------------
B---14--14---14---------------------
G-11--11--------10-12-14------------
D----------14-----------------------

D5          A5
 Tu gran Amor


e------9-10-------9.10------9-10.
B-9-10------10-12------9-10-----
G------------------------------- rasgueo en D8

              E5        F#m           E5-D5
Precoro: /Es tiempo de decidir por quien vivo
    E5          F#m          D8
Te seguiré, mi alabanza Te daré ¡Jesús!/

          A5
Coro: /por TI por Ti Lo entrego todo
F#5                    D5   desliz: C#8-B8-A8
Solo a Ti mi alabanza doy; toda mi alabanza doy
   A5
Por Ti por Ti es por Quien vivo
    F#5                     D5                  A5
Te alabaré con todo lo que soy;toda mi alabanza doy//

      F#m D5 A5 (E) F#5
e-----------------------------------
B---14--14---14---------------------
G-11--11--------10-12-14------------
D----------14-----------------------


e------------------------------
B-14----15----14----10--9------
G------------------------------x2
         F#5
Puente: /Tuyo soy Señor
B5                D5          A5       E  E5
Vivo para darte gloria Dios gloria y honor/
            /precoro + coro/

 F#m D5 A5 (E) F#5
e---9---9---9------------------
B-7---7---5---10-12-14---------
G------------------------------
Fin en A

ACORDES 5:quintas 8:octavas
D8  E---10------| C#8 E---9-------|
    B---10------|     B---9-------|
    G---7-------|     G---6-------|
    D---7-------|     D---6-------|
    xA-----------     xA-----------

B8  E---7-------|  A8 E---5-------|
    B---7-------|     B---5-------|
    G---4-------|     G---2-------|
    D---4-------|     D---2-------|
    xA-----------     A---0--------

BENDIONES Y QUE LES SIRVA. ESTOS SON LAS NOTAS ORIGINALES
Versión 4 - Es Tiempo (Tablatura para bajo (bass tab))
Hola a todos soy nuevo y este sera mi primer tab asi q espero q les
guste y q Dios los bendiga a todos..

Intro: Primero la guitarra y luego entra el bajo asi.
G|-------------------------------------|
D|-------------------------------------|
A|---7/9(x16)--7(x16)--5(x16)--7(x16)--| x2
E|-------------------------------------|

G|-------------------------------------|
D|-------------------------------------|
A|---2(x16)--9(x16)--5(x16)--7(x16)----| x2
E|-------------------------------------|

G|-------------------------------------|
D|-------------------------------------|
A|-----------------5(x16)--------------|
E|-2(x16)--5(x16)----------5(x16)------|

G|------------------------------------------------|
D|------------------------------------------------|
A|---2(x16)--9(x16)--5(x16)--7(x16)--5--5/12(x32)-|
E|------------------------------------------------|



Verso (Amor inexplicable.....)   (es 12 y no 1 2)
G|---------------------------------------------------|
D|---------------------------------------------------|
A|---99999999--55555555--00000000--/1212121212121212-|
E|---------------------------------------------------|

(En tu misericordia.....)
G|------------------------------------------------------------|
D|------------------------------------------------------------|
A|--12-14-12--99999999--55555555--00000000--/1212121212121212-|
E|------------------------------------------------------------|

Pre Coro (Es tiempo de.....)
G|------------------------------------------------|
D|------------------------------------------------|
A|--7--9--5--5-7-5--7--9--5555555555555555--------|
E|------------------------------------------------|

Coro(Por ti por ti......) x2
G|------------------------------------------------|
D|------------------------------------------------|
A|--00000000--/121212121212------9999999999999999-|
E|-------------------------1212-------------------|


G|-----------------------------------------------|
D|-----------------------------------------------|
A|-5555555555555555--00000000--/1212121212121212-|
E|-----------------------------------------------|



Verso
Pre coro
Coro x2

Instrumental x2
G|---------------------------------------------------|
D|---------------------------------------------------|
A|--9979-999--5555-555--00000000--/1212121212121212--|
E|---------------------------------------------------|

Pre Puente x2
G|------------------------------------------------------------------|
D|------7-9-----7-9-----7-9-----7-9-----7-9-------------7-9---------|
A|--9-9-----9-9-----9-9-----9-9-----------------7-9-----------7-7---|
E|----------------------------------7-7-----7-7-----7-7-----7-----7-|

Puente (Tuyo soy Señor.......)x3
G|-------------------------------------------------------------------|
D|------7-9-----7-9-----7-9-----7-9-----7-9-------------7-9----------|
A|--9-9-----9-9-----9-9-----9-9-----------------7-9-------------7----|
E|----------------------------------7-7-----7-7-----7-7-----7-7----7-|

G|------------------------------------------------------------------|
D|------7-9-------------7-9-----------------------7-9---------------|
A|--5-5-----5-5-7---5-5-----5-5-7---55555555--7777-7-7--------------|
E|----------------5---------------5---------------------------------|

(Es tiempo de.....)
G|-----------|
D|-----------|
A|--7--9--5--| x2
E|-----------|

G|------------------------------------------------|
D|------------------------------------------------|
A|--7--9--5--5-7-5--7--9--5555555555555555--------|
E|------------------------------------------------|

Coro x2

End
G|--------------------------------------------------|
D|--------------------------------------------------|
A|--9979-999--5555-555--00000000--/1212121212121212-|
E|--------------------------------------------------|

G|----------------------------|
D|----------------------------|
A|--9979-999--5-5-5-5---------|
E|---------------------5------|
Versión 5 - Es Tiempo (Tablatura para bajo (bass tab))
TAB PARA BAJO

TIEMPO: 147

INTRO:                                                           play x2
G|----------------|----------------|-----------------|-----------------|
D|----------------|----------------|-----------------|-----------------|
A|0-0-0-0-0-0-0-0-|0-0-0-0-0-0-0-0-|-0-0-0-0-0-0-0-0-|-0-0-0-0-0-0-0-0-|
E|----------------|----------------|-----------------|-----------------|

Verso1
G|---|---|---|---|
D|---|---|---|---|
A|-0-|---|-0-|---|
E|---|---|---|---|

|----------------|----------------|-----------------|-2-2-2-2---2-2-2-|
|----------------|0-0-0-0---0-0-0-|-----------------|-----------------|
|----------------|----------------|-0-0-0-0---0-0-0-|-----------------|
|2-2-2-2---2-2-2-|----------------|-----------------|-----------------|
(verso2)
G|-2-|---|-2-|---|
D|---|---|---|---|
A|---|---|---|---|
E|---|---|---|---|

|----------------|----------------|-----------------|-2-2-2-2-2-2-2-2-|
|4-4-4-4---4-4-4-|0-0-0-0---0-0-0-|-----------------|-----------------|
|----------------|----------------|-0-0-0-0---0-0-0-|-----------------|
|----------------|----------------|-----------------|-----------------|

Pre-coro1
G|---|---|---|---||---|---|---|---|
D|-2-|-4-|-0-|---||---|-4-|-0-|---|
A|---|---|---|---||-7-|---|---|---|
E|---|---|---|---||---|---|---|---|

coro
G|----------------|-----------------|-----------------|-----------------|
D|----------------|-----------------|-----------------|-----------------|
A|0-0-0-0---0-0-0-|-0-0-0-0-----9-9-|-9-9-9-9---9-9-9-|-9-9-9-9---9-9-9-|
E|----------------|-----------------|-----------------|-----------------|

G|----------------|-----------------|-----------------|-2-2-2-2---2-2-2-|
D|----------------|-----------------|-----------------|-----------------|
A|5-5-5-5---5-5-5-|-5-5-5-5---5-5-5-|-0-0-0-0---0-0-0-|-----------------|
E|----------------|-----------------|-----------------|-----------------|

G|2-2-2-2---2-2-2-|-2-2-2-2---------|-----------------|-----------------|
D|----------------|-----------------|-----------------|-----------------|
A|----------------|-------------9-9-|-9-9-9-9---9-9-9-|-9-9-9-9---9-9-9-|
E|----------------|-----------------|-----------------|-----------------|

G|----------------|-----------------|-----------------|-2-2-2-2---2-2-2-|
D|----------------|-----------------|-----------------|-----------------|
A|5-5-5-5---5-5-5-|-5-5-5-5---5-5-5-|-0-0-0-0---0-0-0-|-----------------|
E|----------------|-----------------|-----------------|-----------------|

Repetir Verso y Pre-coro1

Instrumental tocar x2
G|----------------|-----------------|-----------------|-2-2-2-2-2-2-2-2-|
D|4-4-4-4---4-4-4-|-0-0-0-0---0-0-0-|-----------------|-----------------|
A|----------------|-----------------|-0-0-0-0---0-0-0-|-----------------|
E|----------------|-----------------|-----------------|-----------------|

 solo tocarx2
G|----------------|-----------------|-----------------|-----------------|
D|----7-9-----7-9-|-----7-9-----7-9-|-----7-9---------|-----7-9---------|
A|9-9-----9-9-----|-9-9-----9-9-----|-------------7-9-|-----------7-7---|
E|----------------|-----------------|-7-7-----7-7-----|-7-7-----7-----7-|

puentetocar x3
G|----------------|-----------------|-----------------|-----------------|
D|----7-9-----7-9-|-----7-9-----7-9-|-----7-9---------|-----7-9---------|
A|9-9-----9-9-----|-9-9-----9-9-----|-------------7-9-|-----------7-7---|
E|----------------|-----------------|-7-7-----7-7-----|-7-7-----7-----7-|

G|----------------|-----------------|-----------------|-----------------|
D|----7-9---------|-----7-9---------|-----------------|-----------------|
A|5-5-----5-5-7---|-5-5-----5-5-7---|-0-0-0-0-0-0-0-0-|-7-7-7-7-7-7-7-7-|
E|--------------5-|---------------5-|-----------------|-----------------|
Versión 6 - Es Tiempo (Tablatura para guitarra (TAB))
Introducción:

e)-------------------------------------------
b)-10-10-10-10-12-12-12-12-14-14-14-9-9-9----
g)-------------------------------------------

e)--------------------------------------------------
b)-12-12-12-14-14-14-7-7-7--10-10-10-9-9-9-5-5-5----
g)-------------------------------------------------- (x2)

e)---------------------------------------
b)-3-3-3-5-5-5-3-2-2-2-3-3-3-5-5-5-------
g)--------------------------------------- (x2)

e)------------------------------------------------10-10-12-12--
b)-/12-12-12-10-10-10-9-9-9-10-10-10-12-12-12-10/9-------------
g)-------------------------------------------------------------

e)-------------------------------------------------------------
b)9-9-9-10-10-10-12-12-12-10/9-9-9-12-12-12-12-12--------------
g)-------------------------------------------------------------

verso 1:

e)------9-9-9-----9-9-9-----9-9-9------------------------------
b)-7-7-7-----7-7-7-----5-5-5-----10-10-12-12-10----------------
g)-------------------------------------------------------------

e)------9-9-9-----9-9-9-----9-9-9------------------------------
b)-7-7-7-----7-7-7-----5-5-5-----12-12-14-14-------------------
g)-------------------------------------------------------------

e)-------------------------------------------------------------
b)-10-10-10-12-12-12-14-14-14-15-15-15-------------------------
g)------------------------------------------------------------- (x2)


CORO

A - F# - D - A
A - F# - D - A



verso :

e)--------------9-9-9-----9-9-9-----9-9-9----------------------
b)-12-14-9-7-7-7-----7-7-7-----5-5-5-----10-10-12-12-10--------
g)-------------------------------------------------------------

e)------9-9-9-----9-9-9-----9-9-9------------------------------
b)-7-7-7-----7-7-7-----5-5-5-----12-12-14-14-------------------
g)-------------------------------------------------------------

e)-------------------------------------------------------------
b)-10-10-10-12-12-12-14-14-14-15-15-15-------------------------
g)------------------------------------------------------------- (x2)
CORO

A - F# - D - A
A - F# - D - A

verso:

e)------9-9-9-----9-9-9-----9-9-9------------------------------
b)-7-7-7-----7-7-7-----5-5-5-----12-12-14-14-------------------
g)-------------------------------------------------------------

e)------9-9-9-----9-9-9-----9-9-9------------------------------
b)-7-7-7-----7-7-7-----5-5-5-----10-10-12-12-14-14-14----------
g)-------------------------------------------------------------


puente

e)-9-9-9-10-10-10-9-9-9-5-5-5-5-5-5-7-7-7-----------------------
b)--------------------------------------------------------------
g)-------------------------------------------------------------- (x3)

verso:

e)-----------
b)10-12-14---
g)-----------

e)-------------------------------------------------------------
b)-10-10-10-12-12-12-14-14-14-15-15-15-------------------------
g)------------------------------------------------------------- (x2)


CORO

A - F# - D - A
A - F# - D - A

Final

e)--9-9--9--9-9------
b)-7-7--5--7-7---5---
g)-------------------


espero k les sirva como ami a este estilo yo lo toco XD

 DIOS LES BENDIGA    KJHOSSHUE [zurdop]

El material contenido en esta página es para exclusivo uso privado y con propósito meramente educativo, se prohibe su reproducción y uso con fines comerciales