En tu Luz

Acordes de la canción 'En tu Luz' de Hillsong United

Versiones de esta canción: Tablatura para bajo (bass tab) - Tablatura para guitarra (TAB) - Letra y acordes

ESTA ROLA ESTA MUI CHIDA
SOLO CHEKA LOS CAMBIOS A TIEMPO
Y SE T HARA FACIL
ASI K AHI LES VA

INTRO:
E:-------------7(X16)----5(X16)--------------7(X8)-----------------
A:---7(X16)--------------------------4(X8)-------------------7-----
D:-----------------------------------------------------------------
G:-----------------------------------------------------------------
VERSO
TAN CONSUMIDOS POR TU AMOR
 QUE HEMOS PERDIDO EL SENTIDO
DE NUESTRO ALREDEDOR

Aki va lo siguiente:
E:----------------------6---6---6---6--------
A:---7/4---4---4---4--------------------7----
D:-------------------------------------------
G:-------------------------------------------
YA NADA NOS PUEDE DESLUMBRAR
NADA EN ESTE MUNDO SE TE PUEDE COMPARAR
JESUS
Y SE REPITE OTRA VEZ LO DE ARRIBA:
E:----------------------6---6---6---6--------
A:---7/4---4---4---4--------------------7----
D:-------------------------------------------
G:-------------------------------------------

NADIE COMO TU……
E:---7----9-----7----5----7----9----7----5555555555---------
A:----------------------------------------------------------
D:----------------------------------------------------------
G:----------------------------------------------------------

CORO:
AKI SE REPITE EL INTRO ASI:
E:-------------7(X16)----5(X16)--------------7(X8)-----------------
A:---7(X16)--------------------------4(X8)-------------------7-----
D:-----------------------------------------------------------------
G:-----------------------------------------------------------------

Y SE REPITE TODA LA INTRO, LA ESTROFA Y EL CORO
Y EN EL PUENTE VA ESTO
        EN TU LUZ VEMOS LA LUZ
E:-----------------------------7
A:------7-----------------------
        EN TU LUZ VEMOS LA LUZ
E:----------------------------5
         EN TU LUZ VEMOS LA  LUUUUZ
E:---------------------------------7
A:--------------------------4-------

Y DESPUES SE HACE LO MISMO DEL CORO
Y TERMINA ASI
E:-------------7(X16)----5(X16)
A:--7(X16)---------------------
D:-----------------------------
G:-----------------------------

E:----------------------------------------
A:-9---9---7---7---11---11---6---6---6---7-


BUENO ESPEREO Y LES GUSTE
LA NETA ESTA FACIL
Y COMO SIEMPRE SALUDOS A ESCUELA DE MUSICA JC
A TODOS
AKI EN SAN MARTIN TEXMELUCAN PUEBLA
LA GLORIA ES DE DIOS  OBLIGAO¡¡¡¡¡¡

Y LAS VIVIS CLAN Y TODO EL EKIPO DE ALABANZA
AKI EN SANTA MARIA
GOOD BLESS A TODOS
Versión 2 - En tu Luz (Tablatura para guitarra (TAB))
Bueno pz este es el intro de la cancion:

1°parte:                          2° parte:
e -----------------------         ------------------------------
a -----------------------         ------------------------------
d -----------------------  x3     ------------------------------
g -----------------------         ------------------------------
b -5-5-5-----------------         -5-7-7-7-5-5-5-------4-4-4-5v-
e ----7-7-7-5-5-5-4-4-4-4         ---------------4-4-4----------

Esto se toca dos veces, pero a la segunda en vez de terminar
con la nota de E se toca el acorde y con eso inicia la letra.
E
Tan consumidos por tu amor, que hemos perdido
              C#m            A
el sentido de nuestro alrededor.
E
Ya nada nos puede deslumbrar nada en este mundo
      C#m                A
se te puede comparar   Jesús.

Despues una de las guitarras toca las quintas con un efecto de
distorcion y cortante para el precoro:

B          C#m B           A
Nadie como tú, nadie como tú  :x2
Coro:

E
Jesús eres nuestra herencia
B                    A
Mas que suficiente
              C#m    B
Nuestro redentor y rey
E                            B
Jesús muestra tus caminos
                    A
Y andaremos en tu luz
                   C#m------B
A la luz de tu verdad

Despues de esto se vuelve a tocar una vez el intro y
comienza de nuevo la canción.

Despues de tocar el coro la segunda vez va un puente:

E                    B
En tu luz vemos la luz,
                     A
en tu luz vemos la luz,
                     C#m
en tu luz vemos la luz

Mientras se toca esto la guitarra electrica toca con Delay
lo siguiente:

e-------------------------------------------------
a-------------------------------------------------
d-------------------------------------------------    x2
g-------------------------------------------------
b-17-17-17-17-17-16-16-16-16-16-14-14-14-14-14-14-
e-------------------------------------------------

Aqui cuiden el tiempo ya que no puse exactamente las veces que se
toca cada nota.

Despues se tocan otras 2 veces el coro y se toca el intro
pero solo la 1° parte y en vez de la segunda se tocan las quintas
de los acordes:

F#-F#-E-E-G#-G#-D#-D#-D#-E ----------->El E del final se toca una
                                       sola vez pero se mantiene
                                       el sonido para terminar la
                                       cancion.

Asi es como se toca en el grupo de mi congre asi que esta correcta y
sino pues suena identico espero les sirva mucho y sea de gloria para
Dios
Versión 3 - En tu Luz (Letra y acordes)
Ps aki les dejo esta transcripcion, espero que les sirva y los
puntos significan un poco tiempo que se keda con la ultima silaba


E
Tan consumidos por tu amor
E                                C#m                   A
Que hemos perdido el sentido de nuestro alrededooor.......


E
Ya nada nos puede deslumbrar
E                         C#m                A
Nada en este mundo se te puede comparar... Jesus

Pre-coro

     B         C#m         B          A
 ////Nadie como tu////  // Nadie como tu//

Coro
E
Jesús eres nuestra herencia
B                    A
Mas que suficiente....
              C#m    B
Nuestro redentor y rey
E                            B
Jesús muestra tus caminos....
                    A
Y andaremos en tu luz
                   C#m     B
A la luz de tu verdad

(Vuelve a empezar todo)

Puente
E                    B
En tu luz vemos la luz,
                     A
en tu luz vemos la luz,
                     C#m
en tu luz vemos la luz

El material contenido en esta página es para exclusivo uso privado y con propósito meramente educativo, se prohibe su reproducción y uso con fines comerciales