Devoción

Acordes de la canción 'Devoción' de Hillsong United

Versiones de esta canción: Tablatura para guitarra (TAB) - Letra y acordes

espero la disfruten aclaraciones a mi correo, valvans@hotmail.com


intro
e-------------------------------------------
b----12-------------------------------------
g-------------------------------------------
d--12---------------------------------------
a-------------------------------------------
e-------------------------------------------x4



verso
e-------------------------------------------
b-------------------------------------------
g----14/16-14-15--15------------------------
d--12-----------16--16-16bend-14------------
a-------------------------------------------
e-------------------------------------------


e-------------------------------------------
b-------------------------------------------
g----14/16-14-15--15------------------------
d--12-----------16--16-16bend/vibrato-------
a-------------------------------------------
e-------------------------------------------

e-------------------------------------------
b-------------------------------------------
g----14/16-14-15--15------------------------
d--12-----------16--16-16bend-14------------
a-------------------------------------------
e-------------------------------------------

e-------------------------------------------
b-------------------------------------------
g----14/16-14-15--15------------------------
d--12-----------16--16----------------------
a-------------------------------------------
e-------------------------------------------



e-------------------------------------------
b-------------------------------------------
g--2p0-2/4--4---7-7-------------------------
d----------5-5---9-9------------------------
a-------------------------------------------
e-------------------------------------------



pre coro

e--3-----3-------3-----2----3---------------
b--3-----3-------3-----3----3---------------
g--0-----3-------0-----2----0---------------
d--0-----2-------2-----0----2---------------
a--2-----2-------3----------2---------------
e--3-----x-------x----------0---------------


e-------------------------------------------
b-------------------------------------------
g--2p0-2/4--4---2p0-2/4-----7---------------
d----------5-5-----------0h9----------------
a-------------------------------------------
e-------------------------------------------


e-------------------------------------------
b-------------------------------------------
g--2p0-2/4--4---2p0-2/4-----7---------------
d----------5-5-----------5/9----------------
a-------------------------------------------
e-------------------------------------------


coro

e-----5--5-----2--2-----7--8--7--8----------
b-------------0--0--0--0--0--0--0--0--------
g----6--6--6-2--2--2--7--7--7--7--7---------
d---7--7--7---------------------------------
a-------------------------------------------
e-------------------------------------------


-----5--5-----2--2-----7--8--10---12----14--14----15
b-------------0--0--0--0--0--0----------------0--0--
g----6--6--6-2--2--2--7--7--7--7/9--9/11--11---12---
d---7--7--7-----------------------------------------
a---------------------------------------------------
e---------------------------------------------------


puente


disfruten la cancion se que es muy poco lo que nevie pero
ni importa creo k les va a ser de ayuda
Versión 2 - Devoción (Letra y acordes)
INTRO
C / D/  E 
C         D

No te veo pero te puedo sentir
E 
De rodillas obtengo  mí salvación
C                   D                          E 
no hay nada, mejor que  estar ,en redención
C                     D
En tus manos. Dios tú me sostendrás
E 
Y oro por, salvación y el mundo tendrá,
C               D
Un cambio tan inexplicable
E 
Tomo mí cruz y te sigo señor
E   D
Coro
G
Ante ti  las montañas temblaron
E 
El  feroz mar, solo te obedece a ti
C
El pecador, buscara devoción
D                     E 
Y El perdido, necesita de ti

C                                D
Perdonado por quien no merecía morir
E 
El ES santo, y  yo  soy el pecador
C                     D
Yo me entrego por completo a ti
E 
Mis ojos  estan  em aquel que em El cielo esta
C                                     D
En El miedo Del mundo yo jamas vivire
 E 
Pues descanso en manos de amor
  C                           D
Y mi mayor deseo ES hoy
  E 
tomar esa crus y seguirte señor
G
Y yo tomo mi crus y
C
Sigo Dios tu camino
E 
Y yo tomo mi crus y
D                     C
sigo siempre a Dios

traducción:Kevin Gutiérrez.
para mas comentarios escribanme a mi correo esta,
rola esta buenisima para adoracion.
o tambien si quieren mas traducciones de este disco
ok DIos los mega bendiga.

El material contenido en esta página es para exclusivo uso privado y con propósito meramente educativo, se prohibe su reproducción y uso con fines comerciales