Cuan grande es nuestro Dios

Acordes de la canción 'Cuan grande es nuestro Dios' de Hillsong United

Intro: C Am  F  G
En la canción en ingles lleva unos arreglos en C y en Am solo en el intro

Que son estos

                  C
E -----------------------------------
B---1-------------------------------
G------------------------------------
D---------------2-------------------
A----------------------3------------
E ------------------------------------

E -----------------------------------
B---1-------------------------------
G------------------------------------
D-----------------------------------
A----------------------3------------
E ------------------------------------

Solo se sequita el 2
Y en Am es igual

E-----------------------------------
B----1-----------------------------
G--------2--------------------------
D--------2--------------------------
A------------------------------------
E-------------------------------------

E-----------------------------------
B----1-----------------------------
G----------------------------------
D----------------------------------
A------------------------------------
E-------------------------------------

SE QUITA EL 2


C
El resplandor de un Rey
Am
Vestido en majestad
  F
La tierra alegre esta
G
La tierra alegre esta

C
Se viste de su luz
Am
Y toda oscuridad
F
Tiembla ente su voz
G
Tiembla ante su voz


Coro:

C
Cuan grande es nuestro Dios, canta con migo
Am
Cuan grande es nuestro Dios
F                  G
Yo cantare cuan grande es nuestro Dios


C
El mismo ayer y hoy
Am
Señor y salvador
F
El es principio y fin
G
El es principio y fin


C
El es la trinidad
Am
Suprema trinidad
F
Cordero y león
G
Cordero y león

Coro:

C
Cuan grande es nuestro Dios, canta con migo
Am
Cuan grande es nuestro Dios
F                  G
Yo cantare cuan grande es nuestro Dios


C
//En su nombre sobre todo
Am
El es digno de alabar
F                           G
Yo cantare cuan grande es nuestro Dios//

Coro:

C
///Cuan grande es nuestro Dios, canta con migo
Am
Cuan grande es nuestro Dios
F                  G
Yo cantare cuan grande es nuestro Dios///



Dios los bendiga mucho
Recuerden mi msn
nanipax@hotmail.com
y mi metroflog
www.metroflog.com/paxn_n

El material contenido en esta página es para exclusivo uso privado y con propósito meramente educativo, se prohibe su reproducción y uso con fines comerciales