Break Free

Tabs, letra y acordes de 'Break Free' por Hillsong United

Versiones disponibles: Letra y acordes - Tablatura para bajo (bass tab) - Tablatura para guitarra (TAB) - Letra y acordes

Intro:F#m D F#m D

Verso 1:
F#m                                        D
No se si puedes hoy creer lo que vas a escuchar
F#m                                        D
Que hay un amor que te da vida y nunca fallara
F#m                                  D
Yo soy libre, yo soy libre voy a bailar en su amor
F#m                                  D
Yo soy libre, yo soy libre voy a bailar en su amor

Verso 2:
F#m                                    D
Quien lo diria que Dios a Jesus por mi envio
F#m                                       D
Dando su vida en la cruz para mostrar su amor
F#m                                  D
Yo soy libre, yo soy libre voy a bailar en su amor
F#m                                 D
Yo soy libre,yo soy libre voy a bailar en su amor, su amor es eterno

Coro:
A                 D                 F#m
En ti esta la verdad no lo puedo negar
                     D
Dios por siempre yo voy a bailar, voy a bailar te alabo
A                 D                    F#m
Permanezco en tu luz vida eterna eres Tu
                   D
En todo tiempo yo voy a bailar voy a bailar te alabo.

Intermedio: F#m D

Verso 3:
F#m                                    D
Ahora es el tiempo de tomar nuestra libertad
F#m                                      D
Para tu gloria nuestras vidas vamos a entregar
F#m                                  D
Yo soy libre, yo soy libre voy a bailar en su amor
F#m                                  D
Yo soy libre, yo soy libre voy a bailar en su amo su amor es eterno

Coro-

Puente 1:
       E     F#m       D                   E    F#m
Con todo mi ser yo te seguire, seguire tu voluntad
       D
Yo te seguire, seguire
      E          F#m  D               E F#m  D
Pues tu palabra es verdad tu amor me da libertad voy a bailar

Instumental:F#m Bm7 F#m Bm7

Puente 2:
F#m                                  Bm7
Yo soy libre, yo soy libre voy a bailar yo soy libre
F#m                                  Bm7
Yo soy libre, yo soy libre voy a bailar yo soy libre
F#m                                  Bm7
Yo soy libre, yo soy libre voy a bailar yo soy libre
F#m                                  D
Yo soy libre, yo soy libre voy a bailar en su amor, su amor es eterno

Coro-

Final: F#m
Versión 2 - Break Free (Tablatura para bajo (bass tab))
modificacion de la transcripcion de:
Eric Pelagio eric_pelagio@ yahoo.com

ESTA ROLA ESTA SUPER PADRE ASI QUE AHI LES VA...

INTRO...EMPIEZA LA GUITARRA SOLA Y DESPUES
CUANDO EMPIEZAN A CANTAR EL BAJO ENTRA HASTA LA SEGUNDA VUELTA:
I ENTRA ASI...

"who would have thought that God.."

E-s22----------222--------------------------------
A------------------------------555-0-55-555-------
D-------4--2-----------44--22----------------55-44-
G------------------------------------------------

"so wont you break wont you break free.."

E--22------22----22--------------------
A-----22-44----22--44----55-55-55-55--------
D--------------------------------77-5--
G--------------------------------------

E--22------22----22--------------------
A-----22-44----22-44----55-55-555-------
D--------------------------------------
G--------------------------------------


CORO:

"there's no escaping the truth.."

E--55555555---------22222222-----------
A-----------55555555---------55-55-55--   A--3-5---5------
D--------------------------------------   D------3---5-----
G-------------------------------------- X2


VUELVE A LO DEL INICIO....I
DESPUES DE REPETIR EL CORO VA LA MUSICA QUE VA ASI..

MUSICA:..

E-------------------------------------------
A--7777777--9999999--55555555---------------
D-------------------------------------------
G------------------------------------------- X4

DESÙES DE ESTO SE QUEDA SOLO EL BAJO HACIENDO LO SIGUIENTE:

E--222-----222---------------------------
A------4-22-------44-22---222-02-22-22---55-44-
D------------------------------------------
G------------------------------------------

E--222-----222------------------------------
A------4-22-------44-2---222-02-22-22--------
D-------------------------------------77-66---

E--222-------222----------------------------
A-------4-22------44-2---222-02-22--2--------
D-------------------------------------------
D------------------------------------22s4---

Y EMPIEZAN A CANTAR:

"so wont you break wont you break free.."

E--22------22------22---------------------
A-----2-4-----2-4------22-02-22-222---55-4-
D----------------------------------------
G-----------------------------------------X3

E--22------22-----22---------------------
A-----2-4-----2-4-----22-22-22-22---5555-
D----------------------------------------
G----------------------------------------

Y VA CORO DESPUES DE ESTO.....

Y TERMINA ASII.....


E--2222-----2222---------------------------
A------4-2-------44-2----------------------
D------------------------------------------
G------------------------------------------


CREO QUE ES TODO, Y PUES IGUAL QUE EN MIS OTRAS TRANSCRIPCONES
LES ACONSEJO QUE ESCUCHEN LA CANCION OK...
Y QUE DIOS LOS BENDIGA...BIIE..
Versión 3 - Break Free (Tablatura para guitarra (TAB))
weno aka les dejo
el tab original de break free(IN A VALLEY BY THE SEA)
cualkier duda ya saven
Pd.:los signod de interrogacion indican
la direcccion de la pua.

                                 ¡  ¡ ! ¡
e--------------------------------X--X-X-X-------------|
B--------------------------------X--X-X-X-------------|
G--------------------------------X--X-X-X-------------|
D-----------------------4---4-6--X--X-X-X-----4-4-6---|x5
A-------------------5-5---5------X--X-X-X----5-5------|
E--2-2-2-2-2-2-2-2---------------X--X-X-X-------------|
                                           ¡ ! ¡ ! !
e------------------------------------------X-X-X-X-X---------
B----------------------2h3h2---------------X-X-X-X-X---------
G----------------------------2-------------X-X-X-X-X---------
D----------------------------------4---4-6-X-X-X-X-X---4--4-6
A------2-4-----2---4-----------5-5---5-----X-X-X-X-X--5--5---
E--2-2--2--2-2---2-------------------------X-X-X-X-X---------
                                                       ^
e----------|                                           |
B----------|                                           |
G----------| ESTO VA UNA VEZ AL FINAL DEL SEGUNDO TAB  |
D---4--6---|
A---5--5---|
E----------|


e---------------------------------------------
B---2-2-2-2-----------------------------------
G---2-2-2-2-------7-7-7s9-9-9s11-11-11---7-7-7
D---2-2-2-2-------7-7-7s9-9-9s11-11-11---7-7-7
A---0-0-O-O-------5-5-5s7-7-7s9--9---9---5-5-5
E---------------------------------------------

e---------------------------------------------
B---2-2-2-2-----------------------------------
G---2-2-2-2-------7-7-7s9-9-9s11-11-11---7-7-7
D---2-2-2-2-------7-7-7s9-9-9s11-11-11---7-7-7
A---0-0-O-O-------5-5-5s7-7-7s9--9---9---5-5-5
E---------------------------------------------

INSTRUMENTAL
e----------
B--10--10--
G--9----7--
D--7----7--
A----------
E----------


Verso 1:
Tu me creerías y me escuchas si te digo que
hay un amor de tal manera que nunca se ve

Pre-coro:
Somos libre, somos libre
Hay que danzar en su amor
Somos libre, somos libre
Hay que danzar en su amor,

Verso 2:
Nunca has pensado que a su hijo el dio por ti
Murió en la cruz para mostrar su prefecto amor

Pre-coro:
somos libre, somos libre
Hay que danzar en su amor
Somos libre, somos libre
Hay que danzar en su amor, su amor perfecto

Coro:
Solo hay una verdad
Ningún error hay en ti
Dios te da si pides,
Hay que danzar, hay que danzar siempre

Verso 3:
Ahora es tiempo de ver nuestra vidas ser libres
Levanto mi vida para darte honra y gloria a ti

Pre-coro:
Coro:
Solo hay una verdad
Ningún error hay en ti
Dios te da si pides,
Hay que danzar, hay que danzar siempre
Solo el es mi luz
Solo brillas en mi
Vamos todos
Hay que danzar, hay que danzar siempre

AL FINAL ALPLIKEN LA INTRO
Versión 4 - Break Free (Letra y acordes)
Esta es la transcripcion de break free espero que les sirva
de ayuda.

Intro:F#,D,F#,D,F#,G# X2

F#                                     D,F#,G#  F#
Me creerias,me escucharias si te dijiese que   hay un amor que
                                D,F#,G#
abre camino y que nunca te detiene

Coro

   F#                                           D
//Liberate,liberate,ponte de pie y baila en su amor

amor sin final//
A                               D                       F#m
No puedes escapar de la verdad, no hay duda que eres tu,Dios por
                         D
siempre nos pondremos de pie y bailaremos

F#
Ahora es el tiempo de tomar la libertad que se ha cruzado en
          D,F#,G#
nuestro camino,ofrecemos nuestras vidas para ver la gloria
         D.F#,G#
de tu nombre

Coro

A                       D                        F#m
No puedo escapar de tu luz,sin duda tu eres la vida por
                               D
todo el mundo nos pondremos de pie y bailaremos

intermedio:F#m,D

E                          F#m
Y por todos nuestros dias seguimos firmes,seguimos firmes en
           D                     E
todos tus caminos seguimos firmes,seguimos firmes en todo lo
              F#m                        D
que has dicho y hecho,seguimos en tu amor y ahora bailaremos

Puente:F#m,Bm7,F#m,Bm7

F#m                 Bm7
Liberate ,liberate,ponte de pie y baila X4

Coro
A                              D                       F#m
No puedes escapar de la verdad,no hay duda que eres tu,Dios por
                         D
siempre nos pondremos de pie y bailaremos.

Final:F#


El intro F# es en la 6a cuerda,los otros 2 F# son en la 4a cuerda
y por ultimo el D en la 5a.

El material contenido en esta página es para exclusivo uso privado y con propósito meramente educativo, se prohibe su reproducción y uso con fines comerciales