Blessed

Acordes de la canción 'Blessed' de Hillsong United

Versiones de esta canción: Tablatura para guitarra (TAB) - Letra y acordes

Tabs:
Verso (con palm mutes)
--------------------------------
-----2-2-----3-3---3------------
-0-0-0-0-0-0-0-0-0-0-(x2)-------
--------------------------------
--------------------------------
--------------------------------

--------------------------------
-----2-2-----3-3---3------------
-----2-2-----2-2---2-(x2)-------
-0-0-----0-0-----0--------------
--------------------------------
--------------------------------

--------------------------------
-----2-2-----3-3---3------------
-0-0-0-0-0-0-0-0-0-0-(x2)-------
--------------------------------
--------------------------------
--------------------------------

-------------------2------------
----------3--------3------------
---------------2---2------------
-2h4h5-4-------2---0------------
---------------0----------------
--------------------------------

Intro/Coro:
-------------------------------
-------15-14-12-------14-12-10-
-------------------------------
-14s16-16-14-12-12s14-14-12-11-
-------------------------------
-------------------------------

-------------------------------
-------15-14-12-12-10-8--------
-------------------------------
-14s16-16-14-12-12-11-9--------
-------------------------------
-------------------------------


Instrumental
--------------------------------------------
---------------12-14-14b15-14-------12-12---
-7-9s11-11-9-9----------------14-14---------
--------------------------------------------
--------------------------------------------
--------------------------------------------

--------------------------------------------------
-----------------------14h15p14p12-14-------------
-9p7-9s11-9b11r9-9p7-9----------------14----------
-----------------------------------------14s11-11-
--------------------------------------------------
--------------------------------------------------

---------------------------------
----------------15--17p15-17b19--
-----7-------14------------------
-------14s16---------------------
-7s9-----------------------------
---------------------------------

Puente:
-------------------------------------------------
-15-(x8)--14-(x8)--15-(x8)--15-15-15-15-15-15-15-
-14-------14-------14-------12-12-12-11-11-12-12-
-------------------------------------------------
-------------------------------------------------
-------------------------------------------------
Versión 2 - Blessed (Letra y acordes)
Intro:

     //D/C - C// - //D/G - G// (2x)

     G                D/C      C
     Benditos los que moran en ti
                      D/G   G
     Y por siempre te alabarán
                   D/C   C      Am7
     Cuya fuerza está en tí
                  D            G
     Y en Dios está su corazón


Instrumental:

      D - A - Bm7 - G - D/F# - Asus - A - Bm7 - G


Estrofa:
                      A/G      G
     Benditos los que moran en ti
                       A/D   D
     Y por siempre te alabarán
                   A/G   G   Em7
     Cuya fuerza está en tí
                  Asus  A   D
     Y en Dios está su corazón


Pre-Coro:
                 G         A
     Iremos de poder en poder
                     G/B     A
     Hasta al fin su rostro ver


Coro:

      D      Asus A   Bm7      G     D/F#
      Escuchanos, oh Dios poderoso
              Asus A
      Bendice hoy
                Bm7     G
      Nuestra tierra para adorar


Puente:

       D                 A/C#
        Porque eres Santo, Porque eres Santo
       Bm7                  G
        Porque eres Santo Dios


Esta alabanza se llama benditos en español
Bendiciones!

El material contenido en esta página es para exclusivo uso privado y con propósito meramente educativo, se prohibe su reproducción y uso con fines comerciales