All for love

Acordes de la canción 'All for love' de Hillsong United

Versiones de esta canción: Letra y acordes - Tablatura para guitarra (TAB) - Letra y acordes

Intro: G   A/C# D
       G/B A/C# D

Verso 1:
G    A/C#            D
 Por amor el Padre dió
G     A/C#           D
 A su hijo en salvación
G      A/C#            Bm
 Y el cielo se estremeció
G         A/C#          D
  Cuando Cristo se entregó

Precoro:
             A/C#                Bm
  Una y otra vez maltraté tu corazón
             G                     D
  Más en tu amor me vuelves a abrazar
            A/C#               Bm
  Una y otra vez has oido mi oración
         G
  Y te acercas a mi

Coro:
A         E/G#      F#m
  Sólo te deseo a Tí
                         D
  Mi principio y mi por siempre
A           E/G#    F#m  D
  Sólo te deseo a Tí

Verso 2:
G     A/C#      D
  Cantaré por amor
G          A/C#       D
  Junto al coro angelical
G        A/C#        Bm
  Santo Santo es el Señor
G        A/C#            D
  Rey de Gloria y Gran Señor

Precoro; Coro x2
Instrumental F#m D F#m D

Verso 3:
D     E/G#          A
  Por amor Jesús clamó
D       E/G#        A
  Abba Padre heme aquí
D             E/G#         A
  Y aunque lo hacen sin saber
D        E/G#            F#m9         F#m9
  Que mi cruz los lleve a Ti, a Ti, a Ti, a Ti

Coro x2

Acordes                            *
   G   A/C#  D   G/B   Bm   A    E/G#   F#m  F#m9
e--3----0----2----3----2----0----0-4----2----4----|
B--0----0----3----3----3----2----0-5----2----2----|
G--0----2----2----0----4----2----1-4----2----2----|
D--0----2----0----0----4----2----2-6----4----2----|
A--2----4----x----2----2----0----2-7----4----4----|
E--3----x----x----x----x----x----4-4----2----2----|
                                   *
E/G# tiene dos formas de hacerlo
     les recomiendo la 2ª (*)

Hola
ta bkn la cancion en especial la letra
saludos a toos los jovenes de la iglesia
asamblea de Dios autonoma de recoleta
Les saluda Fabian...

DtB
Versión 2 - All for love (Tablatura para guitarra (TAB))
Intro:
ElGuitar 1                                          AcGuitar
e|---------0---0--------------------|
B|-3---3---------------3-------3----|               G   A/C# D
G|---2---2---2---2---2---2---2---2--| 2x            G/B A/C# D
D|-0---------------0-------0--------|
A|----------------------------------|
E|----------------------------------|

Verse 1:
ElGuitar 1                                           AcGuitar
e|---------0---0--------------------|
B|-3---3---------------3-------3----|
G|---2---2---2---2---2---2---2---2--| 2x              G-A-D
D|-0---------------0-------0--------|
A|----------------------------------|
E|----------------------------------|
ElGuitar 1                                           AcGuitar
e|---------0---0--------------------|
B|-3---3---------------3-------3----|
G|---2---2---2---2---2---2---2---2--|                 G-A-Bm
D|-0---------------4-------0--------|
A|----------------------------------|
E|----------------------------------|
ElGuitar 1                                           AcGuitar
e|---------0---0--------------------|
B|-3---3---------------3-------3----|
G|---2---2---2---2---2---2---2---2--|                 G-A-D
D|-0---------------0-------0--------|
A|----------------------------------|
E|----------------------------------|

PreChorus:
ElGuitar 1                                           AcGuitar
e|-------------------------3-2-----------0---|
B|-------2-------3-------------3-------3-----|
G|-----2-------2---2-----0-----------2-------|       A-Bm-G-D
D|---2-----------------------------0---------|
A|-0---------2-------------------------------|
E|---------------------3---------------------|
ElGuitar 2
e|-9~~~-10~~~-----------|
B|--------12~~~-10~~~---|
G|----------------------|
D|----------------------|
A|----------------------|
E|----------------------|

ElGuitar 1                                               AcGuitar
e|---------------------3-3-2-3-2-0-----3-3-2-3-2-------|
B|-------2-------3-----------------3-5-----------5-7---|
G|-----2-------2---2-----------------------------------|  A-Bm-G
D|---2-------------------------------------------------|
A|-0---------2-----------------------------------------|
E|-----------------------------------------------------|
ElGuitar 2
e|-9~~~-10~~~-----------|
B|------------7h9-7h9---|
G|----------------------|
D|----------------------|
A|----------------------|
E|----------------------|

Chorus:
ElGuitar 1                                       AcGuitar
e|------9-------12---------9---------10---|
B|---10-------9---------10--------10------|
G|-9--------9--------11--------11---------|      A-E-F#m-D (2x)
D|----------------------------------------|
A|----------------------------------------|
E|----------------------------------------|
ElGuitar 1
e|-----12--12----9-------10----10----10----10----10----10---10----|
B|--10---9----10------10----10----10----10----10----10----10--10--|
G|9----9---11------11---------------------------------------------|
D|----------------------------------------------------------------|
A|----------------------------------------------------------------|
E|----------------------------------------------------------------|

Verse 2:
ElGuitar 1                                    AcGuitar
e|----------------------------------|
B|-----2------2------3--------------|
G|---0------2------2---2------------| 2x       G-A-D
D|---------------0------------------|
A|--------0-------------------------|
E|-3--------------------------------|

ElGuitar 1                                    AcGuitar
e|----------------------------------|
B|-----2------2------3--------------|
G|---0------2------2---2------------|          G-A-Bm
D|----------------------------------|
A|--------0------2------------------|
E|-3--------------------------------|

ElGuitar 1                                    AcGuitar
e|----------------------------------|
B|-----2------2------3--------------|
G|---0------2------2---2------------|          G-A-D
D|---------------0------------------|
A|--------0-------------------------|
E|-3--------------------------------|

PreChorus:
ElGuitar 1                                           AcGuitar
e|-------------------------3-2-----------0---|
B|-------2-------3-------------3-------3-----|
G|-----2-------2---2-----0-----------2-------|       A-Bm-G-D
D|---2-----------------------------0---------|
A|-0---------2-------------------------------|
E|---------------------3---------------------|
ElGuitar 2
e|-9~~~-10~~~-----------|
B|--------12~~~-10~~~---|
G|----------------------|
D|----------------------|
A|----------------------|
E|----------------------|

ElGuitar 1                                               AcGuitar
e|---------------------3-3-2-3-2-0-----3-3-2-3-2-------|
B|-------2-------3-----------------3-5-----------5-7---|
G|-----2-------2---2-----------------------------------|  A-Bm-G
D|---2-------------------------------------------------|
A|-0---------2-----------------------------------------|
E|-----------------------------------------------------|
ElGuitar 2
e|-9~~~-10~~~-----------|
B|------------7h9-7h9---|
G|----------------------|
D|----------------------|
A|----------------------|
E|----------------------|

Chorus 2:
ElGuitar 1                                       AcGuitar
e|--9-------12---------9--------10--------|
B|-10-(8x)---9-(8x)---10-(8x)---10-(8x)---|
G|--9--------9--------11--------11--------| 4x   A-E-F#m-D
D|----------------------------------------|
A|----------------------------------------|
E|----------------------------------------|
Instrumental:
ElGuitar 1
e|----------------------|
B|-14(5x)----12-10(8x)--|
G|--------13------------|  3x
D|----------------------|
A|----------------------|
E|----------------------|

e|----------------------|
B|-14-------------------|
G|----------------------|
D|----------------------|
A|----------------------|
E|----------------------|

ElGuitar 2
e|-------------14-9h12-----------|
B|-10h12-10h12---------10h12h10--|
G|-------------------------------|
D|-------------------------------|
A|-------------------------------|
E|-------------------------------|

AcGuitar
F#m....D (2x)

Verse 3:                                     AcGuitar
ElGuitar1
e|----------------------------------|
B|----------------------------------|
G|-11~-13~--------11~-13~-----------|         D-E-A (3x)
D|---------11~------------12-11-----|         D-E-F#m
A|----------------------------------|
E|----------------------------------|

Chorus 3:
ElGuitar 1                                      AcGuitar
e|--9-------12---------9--------10--------|
B|-10-(8x)---9-(8x)---10-(8x)---10-(8x)---|
G|--9--------9--------11--------11--------|     A-E-F#m-D
D|----------------------------------------|
A|----------------------------------------|
E|----------------------------------------|
ElGuitar 2
e|-------------14-9h12-----------|
B|-10h12-10h12---------10h12h10--|
G|-------------------------------|
D|-------------------------------|
A|-------------------------------|
E|-------------------------------|

aca les va la tablatura de la cancion
pero una cosita, esta es de la version de "Look to You"

adios
saludos a los jovenes de mi iglesia, y a los de las
otras iglesias amigas.

bendiciones.
                       SkaF
Versión 3 - All for love (Letra y acordes)
Intro: G  A/C#  D  G/B  A/C#  D

G        A/C#        D
Por amor un padre dio
G       A/C#           Bm
Su amor camino nos abrió
G      A/C#        Bm
De su gloria despojo
G      A/C#     D
En la cruz murió

PRE-CORO
        A/C#                Bm
Aun al fallar si me acerco a ti
             G
Tu me perdonas
             D
con mucho amor
               A/C#     Bm
Clamo ante ti en mi oración
              G
¡Te anhelo Dios!

CORO
A         E/G#     F#m
Te necesito solo a ti
                      D
Mi principio mi por siempre
A          E/G#    F#m  D
Te necesito solo a ti

G         A/C#       D
Por amor quiero adorar
G        A/C#          D
Con los angeles cantar
G     A/C#        Bm
Siempre santo es el señor
G        A/C#          D
Rey de toda la creación

Other:
F#m  D  F#m  D

D     E/G#        A
Por amor jesus oro
D          E/G#          A
Sea tu voluntad oh Dios
D           E/G#        A
Ellos lo hacen sin saber
D       E/G#        F#m9
Padre Dios perdonales
Oh Dios perdonales




"God's love is expressed by a cross for mankind,
providing redemption, love and eternal life,
 do not despise" .....irepan.....

El material contenido en esta página es para exclusivo uso privado y con propósito meramente educativo, se prohibe su reproducción y uso con fines comerciales