All Day

Tabs, letra y acordes de 'All Day' por Hillsong United

Versiones disponibles: Tablatura para guitarra (TAB) - Tablatura para bajo (bass tab)

Intro...
All Day
---------------------------------|
---------------------------------|
-------------1-------------------|
---------2-2---2-----1-2---------|
-----1-2---------2-2---------2-1-|
-4-4---------------------2-2-----|


(((aki se toka con el intro del bajo))) guitarra
--------------------------------
-12-12-11-11-12-12--------------
-------------------9-8---(x3)---
--------------------------------
--------------------------------
--------------------------------

-------------11-11b12r11-9------
-12-12-11-11---------------12---
--------------------------------
--------------------------------
--------------------------------
--------------------------------

G#m     E              B           F#
No importa lo que digan de mi
   G#m    E  B     F#   G#m
Está bien,   está bien
        E              B           F#
No importa lo que piensen de mi
      G#m   E    B       F#         G#m
Está bien, un día entenderán

E        B       F#      G#m
Te amo, te seguiré
    E     B      F#
Tu eres mi, vida
G#m    E        B        F#
Yo leeré mi Biblia, oraré
G#m     E          B            F# G#m E B F# G#m E B F#
Y yo siempre te seguire

B|-12-12-11-11-12-12--|   3x   e|---------------------11^-9-----|
G|------------------9^|        B|-12-12-11-11-12-12----------12-|


G#m     E              B           F#
No importa lo que me costará
     G#m    E     B      F#       G#m
Pues Tu diste todo, estoy siguiéndote
        E              B           F#
No importa lo que tenga que hacer
   G#m    E    B        F#            G#m
Pase lo que Pase yo voy tras de Ti

B   E
Siempre
  F#    B
Siempre Ya
    E
Siempre

          E
Cualquiera lo puede ver
C#m    E               C#m
Cuan bueno eres para mi
      E                  C#m
Amigos que no creen en Ti
         E
Te pido los salves también
Versión 2 - All Day (Tablatura para bajo (bass tab))
Póngale mucho oido en el tiempo ay que solo pondré los tabs.
arreglen asu gusto
INTRO!
G|-------------1-------------------|
D|---------2-2---2-----1-2---------|
A|-----1-2---------2-2---------2-1-|
E|-4-4---------------------2-2-----| EL ININTROO SE TOCA VARIAS VESES
(SIGAN LA CANCION

G|---------------------------------|
D|---------------------------------|
A|---0~--2~------------------------|
E|-4~-------2~---------------------| X2

Luego va el intro DE NUEVO
G|-------------1-------------------|
D|---------2-2---2-----1-2---------|
A|-----1-2---------2-2---------2-1-|
E|-4-4---------------------2-2-----| SE TOCA VARIAS VESES
DISCULPEN NO TENGO LOS TIEMPOS XD.

G|---------------------------------|
D|---------------------------------|
A|----------2*---------------------|
E|--4*--0*------2*-----------------|x2

LUEGO ESTO VA ENSEGUIDA
G|---------------------------------|
D|---------------------------------|
A|--2*--0*--2*------2*----------2*-|
E|--------------2*------0*--4*-----|X2

Intro de nuevo varias veses
G|-------------1-------------------|
D|---------2-2---2-----1-2---------|
A|-----1-2---------2-2---------2-1-|
E|-4-4---------------------2-2-----|

se repite esto
G|---------------------------------|
D|---------------------------------|
A|----------2*---------------------|
E|--4*--0*------2*-----------------|x2

G|---------------------------------|
D|---------------------------------|
A|--2*--0*--2*------2*----------2*-|
E|--------------2*------0*--4*-----|X2

LUEGO APLICAMOS ESTO
G|---------------------------------|
D|---------------------------------|
A|-5*-7*-5*-7*-5*-7*5*-7*-2-------|
E|---------------------------------|

G|---------------------------------|
D|---------------------------------|
A|--222---------222----------------|
E|---------------------------------|

Y TERMINA CON ESTO
G|---------------------------------|
D|---------------------------------|
A|--2--0--2------2----------2------|
E|--------------2------0--4--------|X2

G|---------------------------------|
D|---------------------------------|
A|--2--0--2------2----------2*-----|
E|--------------2------0--4*-------|X2

G|---------------------------------|
D|---------------------------------|
A|--2*--0*--2*------2*----------2*-|
E|--------------2*------0*--4*-----|ESTA APRTE SE HACE ASTA EL
FINAL DE LA CANCION

G|---------------------------------|
D|---------------------------------|
A|---------------------------------|
E|---2-----------------------------|

ESPERO QUE LES AYA SERVIDO,
ESTA ALGO CONFUNSA PORUE NO PUSE ALGUNOS TIEMPOS.
Echo por Luis fernando
luis_fer_24@hotmail.com

El material contenido en esta página es para exclusivo uso privado y con propósito meramente educativo, se prohibe su reproducción y uso con fines comerciales