Yendo de la cama al living

Acordes de la canción 'Yendo de la cama al living' de Charly García

Versiones de esta canción: Acordes para piano o teclado (con notas) - Tablatura para bajo (bass tab) - Tablatura para guitarra (TAB) - Tablatura para bajo (bass tab) - Acordes para piano o teclado (con notas) - Letra y acordes - Letra y acordes - Letra y acordes

Solo de violín: Yendo de la cama al living
----------------------------------------

"...que viva en mí."

D4~~~ Eb4~ D4~

"Erika..."

G4 Bb4 A4 Bb4~ A4 Bb4~

G4 Eb4 D4 C4~  Bb3 / A3 Bb3~ D4 F4 Eb4 D4~

Eb4 G4 Bb4 A4 D5 F5 Eb5 Bb5~

A4 Bb4 A4 Bb4 G4 D4 Bb3~ C4 Bb3~ A3 Bb3 / A3

Bb3 D4 G4 Bb4~ D5~   Bb4 / A4

----------------------------------------

Ya que puse el solo de violín, también dejo la parte
del cello de Ulises Di Salvo (pizzicato):

B3 C4 Db4 D4 Bb3 G3 G3 G3 G3 F3 G3 Ab3 A3 C4 F3 Gb3 G3 C3

B3 C4 Db4 D4 Bb3 G3 G3 G3 F4 E3

----------------------------------------

~ = Nota larga, ó algo así, una especie de referencia.

/ = Slide, ó Glissando


SNM
Versión 2 - Yendo de la cama al living (Tablatura para bajo (bass tab))
Van cuatro tiempos en silencio, y luego la INTRO:

G----------|5535-|----------|-5535----------|
D-----3355-|-----|-----3355-|---------------|
A---55-----|-----|---55-----|---------------|
E-33-------|-----|-33-------|--------0001122|

G----------|5535-|----------|-5535----------|
D-----3355-|-----|-----3355-|---------------|
A---55-----|-----|---55-----|---------------|
E-33-------|-----|-33-------|--------0001122|

G----------|5535-|----------|-5535----------|
D-----3355-|-----|-----3355-|---------------|
A---55-----|-----|---55-----|---------------|
E-33-------|-----|-33-------|---------------|

Podes pasear en limousine...
G-------------|-------------|-------------|----------------|
D-------------|-------------|-----------3-|---------3------|
A-----------1-|-3333-33-3-2-|-------------|-5535--35-53----|
E-3333-33-3---|-------------|-3333-33-3---|------------654-|

O puedes ser un gran campeón...
G-------------|-------------|----------------|
D-------------|-------------|---------3------|
A-----------1-|-3333-335555-|-5535--35-53----|
E-3333-33-3---|-------------|------------654-|

(Nuevamente la INTRO)

                             no hay ninguna vibracióooon...
G---------------|---------------|---------------|---------------|
D---------------|---------------|---------------|---------------|
A-1111--1-------|-3333-33333332-|-1111--1-------|-3333-33333332-|
E----------5--5-|---------------|----------5--5-|---------------|

aunque vives en un mundo de cine...
G------------|-------------|-------------|------------|
D------------|-------------|-------------|-5----------|
A-6----5-----|-3-----------|-3----5------|------------|
E------------|-------------|-------------|------------|

(Nuevamente la INTRO, junto con los solos de violín, chelo y teclado).

Después de los solos, viene el final:
G---------------|---------------|---------------|---------------|
D---------------|---------------|---------------|---------------|
A-1111--1-------|-3333-33333332-|-1111--1-------|-3333-33333332-|
E----------5--5-|---------------|----------5--5-|---------------|

G---------------|---------------|---------------|---------------|
D---------------|---------------|---------------|---------------|
A-1111--1-------|-3333-33333332-|-1111--1-------|-3333-33333332-|
E----------5--5-|---------------|----------5--5-|---------------|

G----------||
D-----3355-||
A---55-----||
E-33-------||


Hasta aquí la versión Unpluged.

Espero que les guste.
Un saludo desde "El Palomar".
Adrián "Viruta".
Versión 3 - Yendo de la cama al living (Tablatura para guitarra (TAB))
Nota - 11 de junio del 2011:
Gracias por calificar la tablatura, le hice unos pequeños
cambios a los solos del Concierto Subacuático (pull-offs y
uno que otro semitono que anote mal), la parte del tarareo
(en donde suena más el bajo) y al solo 3 (los intervalos
estaban más grandes por un semitono).

Creo que es todo, gracias y sigan calificando.
-----------------------------------------------------------

Como ya estan los acordes del tema, solo pongo la tablatura
de lo que hace la guitarra, tomando como base el video
original (http://bit.ly/h4le7R) y la versión del Concierto
Subacuático.

-----------------------------------------------------------

Guitarra original: Yendo de la cama al living

-----------------------------------------------------------

(...no hay señales de algo que viva en mi)

Solo 1 (con 4 variaciones)

"Negro" López
E--------------------------------------------------------------/
B--------------------------------------------------------------/
G-----------------------10-------------------------------------/
D--10^^^(11)----10^(11)----11p10p8----8~-----------------------/
A----------------------------------10--------------------------/
E--------------------------------------------------------------/

Kiuge Hayashida
E--------------------------------------------------------------/
B----------------------10--------------------------------------/
G---9^^^(10)-----9^(10)----10p9p7-9---8~-----------------------/
D-----------------------------------9--------------------------/
A--------------------------------------------------------------/
E--------------------------------------------------------------/

Charly (Video del 82)
E-----------------------13-------------------------------------/
B--13^^^(15)----13^(15)----15-12-15----11~---------------------/
G-----------------------------------12-------------------------/
D--------------------------------------------------------------/
A--------------------------------------------------------------/
E--------------------------------------------------------------/

E-----------------------13-------------19^(19.5)---------------/
B--13^^^(15)----13^(15)----15-12-15----------------------------/
G----------------------------------(15)------------------------/
D--------------------------------------------------------------/
A--------------------------------------------------------------/
E--------------------------------------------------------------/

-----------------------------------------------------------

Solo 2 (Tarareo)
Esta parte es especialmente difícil de sacar correctamente porque
varía por un semitono y Charly no siempre la toca de la misma
forma (por ejemplo en el Unplugged el Cello lo toca muy
diferente al original) y suele variarlo al tocar en vivo.

Pero está a la perfección respecto a como lo toca en el video.

E---------------------------------------------/
B--------3---------------------.--------------/
G--4-5-6---3-.-.-.-------------5--------------/
D------------5-5-5---5-3-5-6-7---3-4-5--------/
A--------------------------------------3~-----/
E---------------------------------------------/

E------------------3--------------1---------3----/
B--------3-----------5~-----1-2-3-.---1-2-3-.----/
G--4-5-6---4-.-.-.-------------------------------/
D------------5-5-5-------------------------------/
A------------------------------------------------/
E------------------------------------------------/

E--------3-----------------------------/
B--1-2-3-.-3/5-------------------------/
G--------------3/5---------------------/
D------------------3/5-3/5-------------/
A--------------------------5/7---------/
E------------------------------5/7-----/

E--------------------------------------------------------------/
B--------------------------------------------------------------/
G-----------.---------------.----------------------------------/
D---------8-8-----------10-10----------------------------------/
A---------------------.--------------.-12-11^(12)~~~-----------/
E--/10-10------10-10-10-------10-10-10-------------------------/

-----------------------------------------------------------

Solo 3
Esto pueden tocarlo con el índice y el anular, pero para tener
más control del vibrato pueden usar el pulgar para el mute y

E-------10-10--6~-------12-12--8~--------15-15--12~------------/
B-----x---------------x----------------x-----------------------/
G----x---------------x----------------x----|Se repite hasta|---/
D---x---------------x----------------x-----|  el fade out  |---/
A--x---------------x----------------x--------------------------/
E-x---------------x----------------x---------------------------/


Si ponen atención, en el video al empezar el fade out una
segunda guitarra hace una improvisación.

Esto es lo que alcanzo a oír:

E------13----------------------------------------/
B--/15----15-14-13-------------------------------/
G------------------15~/0-------------------------/
D-------------------------15-14-13---------------/
A----------------------------------15~/0---------/
E------------------------------------------------/

Y en el CD la guitarra imita el teclado:

E-----------------------------------------------/
B-----------------------------------------------/
G--5-5-5-5--5--4--4--5-5-5-5-5-5-5-5-5-5-5--4---/
D--5-5-5-5--5--4--4--5-5-5-5-5-5-5-5-5-5-5--5---/
A--3-3-3-3--3--2--2--3-3-3-3-3-3-3-3-3-3-3--6---/
E-----------------------------------------------/

Dudas, sugerencias y comentarios, al correo.

SNM
Versión 4 - Yendo de la cama al living (Tablatura para bajo (bass tab))
Bueno esta es la tab para bajo ya que nadie la habia
presentado.

INTRO:
G-----------------5-5-3-5------------ escuchen el cd para
D--------3-3-5-5--------------------- saber la cantidad
A----5-5----------------------------- de veces que se repite
E-3-3----------------------0-0-1-2--- repite.

VERSOS:
G------------------------3-----
D--------------------3-5---5---
A------3--3--------5-----------
E-3--3------3--3--3------------

G------------------------------
D------------------------------
A------3--3---5--5-------------
E-3--3--------------3-3-3------

ESTRIBILLO:
G------------------------------
D---------------------3-3-5-5-- (X3)
A-----3--------5-5-------------
E-3-3-----3--3-----------------

CORTE:
G-----------------------------------------
D-----------------------------------------
A--------3----------3----6--5---3-3-3-----
E---6--5-------6--5---------------------3-

REPITE
EL ESTRIBILLO

bueno esto es todo cualquier duda envien un mail
Versión 5 - Yendo de la cama al living (Acordes para piano o teclado (con notas))
Teclados originales: Yendo de la cama al living
----------------------------------------------------------

Esta es la primera transcripción de teclado que publico,
estoy más acostrumbrado a trabajar con partituras, asi que
puede que esto resulte algo enredado, pero trataré de explicar
todo.

Ahora, aclaro una cosa: cuando digo 'G3' me refiero a que
el tono corresponde al tercer 'sol' que se ubica en un piano
de cola (completo), ya que se puede confundir con el tercer 'sol'
en un teclado (cuyo tono varía según el tamaño [61, 65, 88])

Segundo: Supongo que usan un teclado común con instrumentos
GENERAL MIDI, es por eso que anoto el nombre de la 'voz' que
hace el teclado en base a ese sistema.

Si usan VST ó algún sampler solo es cuestión de buscar algo
que suene parecido.

----------------------------------------------------------

Intro

'CyberPad'

 |G4~~~~~~~~~~~~~~-------------------------------------------|
 ppp     <      mf

'GrandPiano'

 |-----------D5-G5-------------------------------------------|

'DarkMoon'

 |------------------------Eb4~~~~~~~-----------Eb4~~~~~~~~~~~|
 |--------------D4~~~~~~~~C4~~~~~~~~D4~~~~~~~~~C4~~~~~~~~~~~~|
 |--------------Bb3~~~~~~~Bb3~~~~~~~Bb3~~~~~~~~Bb3~~~~~~~~~~~|
 |--------------G3~~~~~~~~G3~~~~~~~~G3~~~~~~~~~G3~~~~~~~~~~~~|

Lo que hace el 'DarkMoon' se repito dos veces más, y encima suena:

'Transform'

 |--D6~~~~~~~~~~~~~~Eb6~~~~~~~~~~----------------------------|
 |--Bb5~~~~~~~~~~~~~~~~~~~~~~~~~~----------------------------|
 |--G5~~~~~~~~~~~~~~~~~~~~~~~~~~~----------------------------|

'GrandPiano'

 |--G5-------D5----------------------------------------------|
 |--Bb4------------------------------------------------------|

Termina intro

------------

Durante los versos el GrandPiano arpegia quintas muy agudas con
mucho 'Reverb', éstas abarcan de la octava 5 a la 6.

'GrandoPiano'
 Podés pasear...                                ...y no tienes..
 |--G6--Gb6-F6---E6-Eb6--D6--Db6--C6--D6--Eb6-E6-F6--Gb6--G6-|
 |--D6--Db6-C6---B5-Bb5--A5--Ab5--G5--A5--Bb5-B5-C6--Db6--D6-|
 |--G5--Gb5-F5---E5-Eb5--D5--Db5--C5--D5--Eb5-E5-F5--Gb5--G5-|

'Vibes con Syn.Strings de segunda voz'
 ...amor para dar.
 |--Bb5-Bb5-A5-G5-D5-F5--G5-F5--G5---------------------------|

Se hace 4 veces, la tercera se le añade un 'GrandPiano':

 |--Bb6-Bb6-A6-G6-D6-F6--G6-F6--G6---------------------------|

Después comienzan de nuevo los versos:

'Syn.Strings ó Strings'

 |--C5--B4--Bb4--A4-Ab4--G4--Gb4--G4--G4--Ab4-A4-Bb4-B4---C5-|
 |--G4--Gb4-F4---E4-Eb4--D4--Db4--C4--D4--Eb4-E4-F4--Gb4--G4-|
 |--G3--Gb3-F3---E3-Eb3--D3--Db3--C3--D3--Eb3-E3-F3--Gb3--G3-|

'Syn.Strings ó Strings'
 ...amor para dar.
 |--Bb5-Bb5-A5-G5-D5-F5--G5-F5--G5---------------------------|

Igual, se repite.

Los siguiente se repite varias veces en el resto de la canción y
hasta el final, cuando se va desvaneciendo.

'70's Lead ó Strings'

 |-G4-G4-G4-G4--G4--Gb4-Gb4-G4-G4-G4-G4--G4-G4-G4-G4-G4-G4-G4-Gb4-|
 |------------------------------------------------------------Eb4-|
 |-C4-C4-C4-C4--C4--B4--B4--C4-C4-C4-C4--C4-C4-C4-C4-C4-C4-C4-B4--|
 |-G3-G3-G3-G3--G3--Gb3-Gb3-G3-G3-G3-G3--G3-G3-G3-G3-G3-G3-G3-Gb3-|

'Full Organ'
Aunque vives...
 |-------Bb4---G4---F#4---G4---G4---G4----------------------|
 |--G4---G4----D4---D4----E4---F4---D4----------------------|
 |--D4---Eb4---C4---------C4---C4---------------------------|

'GrandPiano'
 ...que viva en mi.
 |--G5--Bb5-D6--F6--G6-F6-G6-Bb6----------------------------|

'GrandPiano'
 |-D5---D5--D5---Bb4--G4--------F3-F3--F3-----|
 |-Bb4--Bb4-Bb4--G4---Eb4-------D3-D3--D3-----|

Después se toca muy rápido Db5-D5-F5 y Bb4-C5.

Para este momento ya ha sonado varias ocasiones un Bb (la nota
del pánico según Charly) que se alterna con C, no estoy seguro
con que lo hace, pero suena bien con el BritePiano, solo escuchen
bien el tema para saber cuando toca cada nota.

'BritePiano'

 |--Bb3--|--C4--|
 |--Bb2--|--C3--|

Después suena de nuevo los Strings, junto con el BritePiano y empieza
la guitarra.

'70's Lead ó Strings'

 |-G4-G4-G4-G4--G4--Gb4-Gb4-G4-G4-G4-G4--G4-G4-G4-G4-G4-G4-G4-Gb4-|
 |------------------------------------------------------------Eb4-|
 |-C4-C4-C4-C4--C4--B4--B4--C4-C4-C4-C4--C4-C4-C4-C4-C4-C4-C4-B4--|
 |-G3-G3-G3-G3--G3--Gb3-Gb3-G3-G3-G3-G3--G3-G3-G3-G3-G3-G3-G3-Gb3-|

Continua hasta que se desvance.

--

Bonus:

Quienes tengan el cassette original sabrán que al final de la canción
hay una iimprovisación de Charly en el piano que casi no se escucha,
pero ahí esta.

 |-Bb5-C6-D6-C6-Bb5-F6-Eb6-D6-C6-G6-F6-Eb6-D6-A6-G6-F6-Eb6-Bb6----|

 |-A6-G6-F6-C7-Bb6-A6-G6-D7-C7-Bb6-A6-C7-Bb6-A6-G6-A6-F6-G6-F6-G6-|
Versión 6 - Yendo de la cama al living (Letra y acordes)
Ya hay otras versiones dando vuelta pero ninguna me parece correcta...
Me puse contra el parlante para intentar sacar bien cada nota de los
acordes y me parece que ahí va.

Intro: Gm7 - Cm7

Gm*                         Gm7 
Podés pasear en limousine
Csus4                       C
Cortar las flores del jardín
Gm5 
Podés cambiar el sol
       Gm**                Dmaj7     D7
Y esconderte si no quieres verme
       Gm**      Gm5 
Puedes ver amanecer
Gmadd6  Csus4          C#sus4
Con    caviar desde un hotel
     Gm7/D                          Dm/G
Y no tienes un poquito de amor para dar
Cm7                      Gm7
     Yendo de la cama al living
Cm7                      Gm7
     Sientes el encierro
Cm7                      Gm7
     Yendo de la cama al living


(Estrofa igual que la anterior)

Podés saltar de un trampolín
Batir un record en patín
Podés hacer un gol
Y podés llevar tu luna al cielo
Puedes ser un gran campeón
Jugar en la selección
Y no tienes un poquito de amor para dar
Yendo de la cama al living
Sientes el encierro
Yendo de la cama al living

(Los próximos acordes los explico bien abajo)

Gm/Bb  Am7(5+)  Csus2add6   B7(5+)
    Oh no, no,   no
No hay ninguna vibración
       Ebmaj7     Dm7       Csus4
Aunque vives en el mundo de cine
                      Dm7          Gm
No hay señales de algo que vive en mí

(como intro)
Voy yendo de la cama al living
Sientes el encierro
Voy yendo de la cama al living

Tarareo y resto hasta el final igual que "oh, no, no..." (Gm/Bb, etc)


Para tocar en guitarra aconsejo hacerlo así.
De paso las estrofas se diferencian
por tener acordes con menor densidad de notas.


Gm*:                  xx878x
Gm7+:                 xx877x
Csus4:                xx556x
C:                    xx555x
Gm5 :                 xx534
Gm**:                 xx533x
Gmadd6:               xx535
C#sus4:               xx667x
Gm7/D:                x55766
Dm/G:                 xx5765

Gm/Bb:                6x578x

Am7(5+):              5x556x
Esto se explica mejor como un acorde por cuartas en
el que la segunda cuarta no está: La (re) sol do fa)

Csus2add6:            8x778x (
Un acorde por cuartas La re sol con bajo en Do)

B7(5+):               7x788x
Versión 7 - Yendo de la cama al living (Letra y acordes)
INTRO: SOLm7 DO7  SOLm7 RE7 SOLm7 DO7 RE4  SOLm7

      SOLm7
Podés pasear en limousine
      DO7
cortar las flores del jardín
      SOLm7
podés cambiar el sol y esconderte
                     RE7
si no quieres verme.

           SOLm7
Podés ver amanecer
          DO7  
con caviar desde un hotel
            RE4                              SOLm7
y no tenés ni  un poquito de amor para dar.

DOm7                        SOLm7
  Yendo de la cama al living
DOm7            SOLm7
  sientes el encierro

DOm7                        SOLm7
  Yendo de la cama al living

        SOLm7
Podés saltar de un trampolín
        DO7
batir un record en patín
       SOLm7
podés hacer un gol
                          RE7
llevar tu nombre al cielo.
            SOLm7
Puedes ser un gran campeón
          DO7
jugar en la selección 
           RE4                              SOLm7
y no tenés ni  un poquito de amor para dar.

DOm7                        SOLm7
  Yendo de la cama al living
DOm7            SOLm7
  sientes el encierro

DOm7                        SOLm7
  Yendo de la cama al living

SIb5 LA5           DO5     SI5
       Oh, no, no, no,
SIb5             LA5        DO5    SI5
  no hay ninguna vibración
            RE4             MIbmaj      RE4
aunque vives en un mundo    de cine
                 DO7 4            
no hay señales de algo  
                 SOLm
que vive en mi.

DOm7                        SOLm7
  Yendo de la cama al living
DOm7            SOLm7
  sientes el en cierro

DOm7                        SOLm7
  Yendo de la cama al living
SOLm7
Y te digo

SOLm7 DO7  SOLm7 RE7 SOLm7 DO7 RE4  SOLm7


ROSARIO es de NOB
Versión 8 - Yendo de la cama al living (Letra y acordes)
Corrección del tema 'Llendo de la cama al living' de Charly García

  Gm7                      Gm7 
Podés pasear en limousine,
   C7sus4                     C7
cortar las flores del jardín,
  Gm7/b6                    Gm7
podés cambiar el sol y esconderte
              Dmaj7   D7
si no quieres verme.
       Gm7      Gm7/b6
Puedes ver amanecer
Gm7/6 C7sus4          C#sus4(b5)
con caviar desde un hotel
     Dsus4                          Gm7
y no tienes un poquito de amor para dar.

Cm7                  Gm7
 Yendo de la cama al living
Cm7            Gm7
 sientes el encierro.
Cm7                  Gm7
 Yendo de la cama al living.

Podés saltar de un trampolín,
batir un record en patín,
podés hacer un gol y podés
llevar tu nombre al cielo.
Puedes ser un gran campeón
jugar en la selección
y no tienes un poquito de amor para dar.

Yendo de la cama al living...

 
Bbmaj7(b5) Am7(#5) C6/9  B7/b13
Oh,         no,     no,    no,
Bbmaj7(b5)     Am7(#5)    C6/9
no      hay ninguna  vibración.
   Dsus4 Ebmaj7      Dsus4    C7sus4
Aunque   vives en un mundo de cine
                                   Gm
no hay señales de algo que vive en mí.

Yendo de la cama al living... Y te digo...

Fin: Tarareo con acordes de la 1ª  estrofa.

El material contenido en esta página es para exclusivo uso privado y con propósito meramente educativo, se prohibe su reproducción y uso con fines comerciales