Tu vicio

Acordes de la canción 'Tu vicio' de Charly García

Versiones de esta canción: Tablatura para bajo (bass tab) - Tablatura para guitarra (TAB) - Letra y acordes - Acordes para piano o teclado (con notas) - Notas para armónica

PARTE 1 (..vicio más)
       mi
G-------------6-------  ------------6-------
D-------6--9-----9----  ------6--9-----9----
A----7--------------7-  ---7--------------7-
E---------------------  --------------------

       La
G---------------------  --------------------
D------------4--------  ------------4-------
A------4--7-----7-----  ------4--7------7---
E---5--------------5--  --5---------------5-

        Si
G-------------------  -----------------------
D------------6------  -----------6-----------
A------6--9-----9---  -----6--9-----9--------
E---7-------------7-  --7--------------7-----


(...porq soy tan solo un vicio)

    do#m       re   La
G---------  ------------------------------
D---------  ------------------------------
A---4-4---  ---5--------------------------
E---------  ---------5--------------------

PARTE 2 (..estes masturbando)

     Si7
G-----------------------------------------
D-------------6----11h-9------------------
A-------6--9----9-------------------------
E--7--9-----------------------------------
   d• (apurenlo es buen arreglo)

     sol#      do#m     fa#sus4        fa#7
G---------- --------- ------------- ------------
D---------- --------- -----4---4-4- -----2---2-2-
A---------- --4-4-4-- ------------- -------------
E---4-4-4-- --------- -2-2---2----- -2-2---2-----

(..todas esas cosas q no puedes comprar)
Segui el ritmo de la frase

   Fa#m7                  si
G------------------------------------------
D------------------------------------------
A--------------------------2----------------
E--2--2----5-4-5-4-5-4-5-------------------
Solo Mi

G---------6-6---  --6---6-------------------
D-----6-9-----9-  ----9---9--6--------------
A---7-----------  ------------7h-9-9-7------
E---------------  --------------------------

G----------------  -------------------  -------
D----------6-6---  -6---6-------------  -6-----
A-----7--9-----9-  ---9---9--7---9--7-  ---9-7-
E--9-------------  ------------9------  -------


BUENO GENTE ESCUCHEN EL TEMA Y TOKENLO SOY ROKE
ESPERO Q SIGAN ESCUCHANDO CHARLY PORQ ES LO MEJOR..
SAY NO MORE
Versión 2 - Tu vicio (Tablatura para guitarra (TAB))
He notado que a las versiones de este tema que hay aquí les
fallan detalles, así que decidí mandar la mía que, si bien
no es perfecta, se acerca mucho a la original.

El intro es la, re y mi arpegeados 2 veces...

Debo anotar, antes de comenzar, un riff que va con los tonos
MI, LA y SI y que entra en cuanto entra el tono, solo en los
versos:

Tono de MI (E)          tono de la (A)
E|-0-4------0-0-4------|-----------------------|
A|-----2-4-2------2-4-2|-0-0-4------0-0-4------|
D|---------------------|-------2-4-2------2-4-2|

Tono de si (B)
E|--------------------------|
A|-2-2-6--------2-2-4-------|
D|--------4-6-4--------4-6-4|

          E
Yo soy un vicio mas
                  A
en tu vida soy un vicio más
          B
porque no me dejás
                          C#m       D
si es que soy tan solo un vicio, tu vicio...

          E
yo soy un vicio mas
                   A
en tu mente soy un vicio más
         B
no me podés dejar
                      C#m       D
porque soy tan sólo un vicio, tu vicio...


            B
Y cuando estés masturbando a la nena
   G#7              C#m
en una playa en Pinamar
F#7sus4               F#7
no te hagas problema, no vale la pena,
F#m7                       B
alguien en el mundo nunca te va a dejar.




yo soy un vicio mas
en la gente soy un vicio mas
contale a tu mamá
ella también tiene el vicio, tu vicio...


E|-5---------------------5----5----------------------------
A|---4-----------------4---2-2-----------------------------
D|----2-4-4-2--4-2-4-2-----------2--------------------2----
g|--------------------------------2-----------------2----2-
b|----------------------------------0-2-2-0--2-0-2-0----0--
e|---------------------------------------------------------

E|------5--------------------5----5--------------------------
A|--------4-----------------4--2-2---------------------------
D|----------2-4-4-2--4-2-4-2--------2-------------------2----
g|-----2-----------------------------2-----------------2---2-
b|-2-0---------------------------------0-2-2-0--2-0-2-0---0--
e|-----------------------------------------------------------

E|-------------
A|-------------
D|-------------
g|-----2-------
b|-2-0---------
e--------------



y cuando estés masturbando a la nena
en una playa en Pinamar
quien te hará el aguante, quien te dará antes
todas esas cosas que no puedes comprar

yo soy un vicio mas,
todo el tiempo soy un vicio mas
en esta sociedad
todo el mundo tiene un vicio, tu vicio

yo soy un vicio mas
en tu vida soy un vicio mas
porque no me dejas
si es que solo soy un vicio, tu vicio

tu vicio, tu vicio...

Sobra decir que todos los versos van igual y que los dos cambios
también son los mismos tonos... ahí está, bastante fácil...

si tienen dudas, comentarios, quejas, etc. a mi mail
sodamaniac@hotmail.com

ando buscando baijsta, guitarrista y baterista con influencias
de sui generis, seru girán, charly, spinetta y todo eso para tocar
en un grupo en Tijuana B.C., México, interesados a mi mail.

AGUANTE LA INFLUENCIA!!!
Versión 3 - Tu vicio (Letra y acordes)
Corrección a la transcripción de:
Marcelo Gustavo Podmoguilye
(marcepod@aol.com)

Intro:[A  E  D-A  E  D-A  E  D-A]

           E
Yo soy un vicio más,
                   A
en tu vida soy un vicio más.
            B
¿Por qué no me dejas
                          C#m
si es que soy tan solo un vicio?
    D  A
Tu vi-cio.

Yo soy un vicio más,
en tu mente soy un vicio más.
No me podes dejar
porque soy tan solo un vicio,
tu vicio.

            B
Y cuando estés masturbando a la nena
   G#7              C#m
en una playa en Pinamar
F#7sus4               F#7
no te hagas problema, no vale la pena,
F#m7                       B
alguien en el mundo nunca te va a dejar.

Yo soy  un vicio más,
en la gente soy un vicio más,
contale a tu mamá,
ella también tiene el vicio,
tu vicio.

Y cuando estés masturbando a la nena
en una playa de Pinamar
quién te hará el aguante, quién te dará antes
todas esas cosas que no puedes comprar.
Yo soy un vicio más,
todo el tiempo soy un vicio más,
en esta sociedad
todo el mundo tiene un vicio,
tu vicio.

Yo soy un vicio más,
en tu vida soy un vicio más.
¿Por qué no me dejás,
Si es que solo soy un vicio?
Tu vicio.

    E      D-A
Tu vicio,...
Versión 4 - Tu vicio (Acordes para piano o teclado (con notas))
Intro:[A  E  D-A  E  D-A  E  D-A]

           E
Yo soy un vicio más,
g#  g#  b c# c#  b

                   A
en tu vida soy un vicio ma-a-as
c#  b c# b g#   e g# g# f# e f#

            B         A
¿Por qué no me dejas
  c#  c#  e g# g# f#

                          C#m
si-es que soy tan solo-un vicio?
  g#  f#   g#  f#  e  c#  f# e

    D  A
Tu vi-cio.
g# f#  e


Yo soy un vicio más,
en tu mente soy un vicio más.
No me podes dejar
porque soy tan solo un vicio,
tu vicio.


            B
Y cuando-estés masturbando-a la nena
c# c#   e  f#  f#  e f#  f#   e f# b

   G#               C#m
en u--na pla-ya  en  Pi-na-ma-ar
e  g# g#  g# g#  g#  g# f# f#  e

F#sus4                F#
no te-hagas problema, no va-le  la pena,
g#   f# f#   e  e c#  g#  f# f#  e e c#

F#m                        B
alguien en el mundo nunca te va a  dejar.
g# f#   f# e   e c# c# e  g# g# g# g# f#

Yo soy  un vicio más,
en la gente soy un vicio más,
contale a tu mamá,
ella también tiene el vicio,
tu vicio.

Solo igual que estrofa x2

Y cuando estés masturbando a la nena
en una playa de Pinamar
quién te hará el aguante, quién te dará antes
todas esas cosas que no puedes comprar.
Yo soy un vicio más,
todo el tiempo soy un vicio más,
en esta sociedad
todo el mundo tiene un vicio,
tu vicio.

Yo soy un vicio más,
en tu vida soy un vicio más.
¿Por qué no me dejás,
Si es que solo soy un vicio?
Tu vicio.

    E     D A
Tu vicio,...
g# f# e



NOTA: Todas las estrofas que empiezan con “Yo soy un vicio más”
llevan las mismas notas y acordes, y las que empiezan con
“Cuando estés masturbando a la nena” pasa lo mismo entre ellas.
 Espero que entiendan y que esté bien (a mi me parece que sí).
Cualquier duda envíenme un mail a feder_gelp@yahoo.com.ar
Gracias.
Versión 5 - Tu vicio (Notas para armónica)
Esto es para el principio, en vez del punteo 

ACLARACION: una 'b' al lado de un numero aspirado,entre paréntesis,
(4)b, significa que esa nota debe ser tocada pronunciando 'tuuuuaaaaaaa'.

4 5 6 (6) (6) 6 – (6) 6 (6) 6 - 5 4 (4)b (4)b 4 - 3 4 5 5  5 (4)b -
- 5 (4) 5 (4) 3 2 (3)b 3 - 4 (3)b 3

FIN

Cola
Aguante Akvados

El material contenido en esta página es para exclusivo uso privado y con propósito meramente educativo, se prohibe su reproducción y uso con fines comerciales