Serú Girán Medley

Acordes de la canción 'Serú Girán Medley' de Charly García

Bueno, lo que saqué es la melodía de la primera parte 
de la intro del tema 'Serú Girán' (del disco homónimo),
que es la que hace de intro en el 'Serú Girán Medley'
del Unplugged, aunque en los créditos del disco se 
mencionan solamente 'Eiti Leda' y 'Viernes 3 AM'. 
No está 100% igual, sospecho, porque lo saqué 
básicamente de memoria, sin chequear con lo que está
en el disco, así que correcciones y comentarios son 
bienvenidos a mumble@data54.com. Tampoco están 
correctas las figuras rítmicas, pero sí lo está la 
división en compases. Que lo disfruten.


e|--------|--------|-----------------------|------------------------|
B|--------|--------|-----------------------|------------------------|
G|--------|--------|----------------6--10--|8-------10--8-----8--10-|
D|--------|--------|----------3--6---------|---------------6--------|
A|4-------|4-------|4------6---------------|------------------------|
E|--------|--------|-----------------------|------------------------|


e|---------------|----------------|--------12--10---------7-|
B|---------------|13------12------|12--------------8--10----|
G|11------12--14-|----------------|-------------------------|
D|---------------|----------------|-------------------------|
A|---------------|----------------|-------------------------|
E|---------------|----------------|-------------------------|


e|10----12-10-8----10-8-|7---5---|7---8---|10--12--|14------|
B|----------------------|--------|--------|--------|--------|
G|----------------------|--------|--------|--------|--------|
D|----------------------|--------|--------|--------|--------|
A|----------------------|--------|--------|--------|--------|
E|----------------------|--------|--------|--------|--------|


e|15-------------------------------------|--------|
B|----15-17---------------15-------------|--------|
G|-----------14-16--16-16----16-12-12-14-|14------|
D|---------------------------------------|--------|
A|---------------------------------------|--------|
E|---------------------------------------|--------|


e|-----------------------|------------------------|
B|15----17-15-14-15------|---14-13-12-------------|
G|-----------------------|16----------------------|
D|-----------------------|------------------------|
A|-----------------------|------------------------|
E|-----------------------|------------------------|



e|--------12--10---------7-|10----12-10-8----10-8-|7---7---|
B|12--------------8--10----|----------------------|--------|
G|-------------------------|----------------------|--------| (arranca  
D|-------------------------|----------------------|--------|  Eiti Leda)
A|-------------------------|----------------------|--------|
E|-------------------------|----------------------|--------|

El material contenido en esta página es para exclusivo uso privado y con propósito meramente educativo, se prohibe su reproducción y uso con fines comerciales