Rock & Roll Yo

Acordes de la canción 'Rock & Roll Yo' de Charly García

Versiones de esta canción: Tablatura para guitarra (TAB) - Letra y acordes

Corrección del riff del principio:

1------------------------------------------------------
2---------------------------------------8-----8--------
3---------------------------------------7-----7--------
4-------5-------------------------------5-----5--------
5-5-6-7---7-6-5---------5--------------(7)---(7)-------
6---------------7-5-6-7---7-6-5-3--0-0-----0-----------

1------------------------------------------------------
2-------8-------------------------------8-----8--------
3-7-8-9---9-8-7---------7---------------7-----7--------
4---------------9-7-8-9---9-8-7-5-------5-----5--------
5--------------------------------------(7)---(7)-------
6----------------------------------0-0-----0-----------

1------------------------------------------------------
2---------------------------------------8-----8--------
3---------------------------------------7-----7--------
4-------5-------------------------------5-----5--------
5-5-6-7---7-6-5---------5--------------(7)---(7)-------
6---------------7-5-6-7---7-6-5-3--0-0-----0-----------


*nota: el acorde x-7-5-7-8-x es un mi menor con séptima pero
tambien puede tocarse como un sol de quintas
si se lo toca como x-x-5-7-8-x suena bien de las dos formas...

cualquier cosa: nazareno59 hotmail.com ;)
Versión 2 - Rock & Roll Yo (Letra y acordes)
Intro: D-D#-E-G-E-D#-D Ab-A-Bb-B-Bb-A 

E --------------4-5-6-7-6-5
A-5-6-7--7-6-5-------------
D------5-------------------
G--------------------------         
B--------------------------
E--------------------------


E    G    E  G     E   G    E   A Bb B
Hey linda nena ¿donde vas a ir
E  G   E  G     E     G   E     A Bb B
cuando no queden más lugares para Huir?
E  G  E  G     E   G    E   A Bb B
Argentinita ¿dónde vas a estar
E    G    E  G     E   G    E 
cuando la gente no te quiera ni mirar?

B
Voy a saltar adentro tuyo,
C#m                        F#m G Ab# A
comiendome de a poco tu orgullo.
E                        B
saquen y eliminen a esa tonta
                   A
de mi rock n´ roll yo

Hey papafrita, ¿que vas a sentir
Cuando no tengas milanesas que greir?
Hija de puta, te voy a matar
Donde te encuentres yo seguro voy a estar

Voy a saltar adentro tuyo,
comiendome de a poco tu orgullo.
saquen y eliminen a esa tonta
de mi rock n´ roll yo

           A                E
Quizas te ame, ¿Que puedo hacer
         A                  E
Cuando mañana estará en el ayer? Yeah!


Voy a saltar adentro tuyo,
comiendome de a poco tu orgullo.
saquen y eliminen a esa tonta
de mi rock n´ roll yo

Este es mi rock n´ roll,
este es mi rock n´ roll,
este es mi rock n´ roll,
este es mi rock n´ roll, Yo!

Quizas te ame, ¿Que puedo hacer
Cuando mañana estará en el ayer? Yeah!

Voy a saltar adentro tuyo,
comiendome de a poco tu orgullo.
saquen y eliminen a esa tonta
de mi rock n´ roll yo

El material contenido en esta página es para exclusivo uso privado y con propósito meramente educativo, se prohibe su reproducción y uso con fines comerciales