Pubis Angelical

Acordes de la canción 'Pubis Angelical' de Charly García

Versiones de esta canción: Tablatura para guitarra (TAB) - Tablatura para guitarra (TAB)

Un gran tema de Charly que merece una tablatura completa (y correcta).

Esta versión esta hecha en base al tema original.

---------------------------------------------------------------------
Guitarras originales: Pubis Angelical
Charly García
Pubis Angelical
1982

---------------------------------------------------------------------

Guitarra acústica:

E----------8--8----8/10-8--------------------------------------/
B-----8/10------10--------8/10-8------------8/10-8-------------/
G--10----------------------------10--7-10-7--------10----------/
D--------------------------------------------------------------/
A--------------------------------------------------------------/
E--------------------------------------------------------------/

E--------------------------------------------------------------/
B-------------------8/10-8/10-8------------9-8~----------------/
G--10--6/7-----7-10-------------10--7-10-7------10~------------/
D----------10--------------------------------------------------/
A--------------------------------------------------------------/
E--------------------------------------------------------------/

E----------8--8----8/10-8--------------------------------------/
B-----8/10------10--------8/10-8-------8/10-8/10-8-------------/
G--10----------------------------10--7-------------10----------/
D--------------------------------------------------------------/
A--------------------------------------------------------------/
E--------------------------------------------------------------/

E--------------------------------------------------------------/
B-------------------8/10-8/10-8------------9-8~----------------/
G--10--6/7-----7-10-------------10--7-10-7------10~------------/
D----------10--------------------------------------------------/
A--------------------------------------------------------------/
E--------------------------------------------------------------/

E--11-11-11-11-11-11--10-8--------10-12-----12-13~-------------/
B---------------------------11-10--------10--------------------/
G--------------------------------------------------------------/
D--------------------------------------------------------------/
A--------------------------------------------------------------/
E--------------------------------------------------------------/

E--13-13-13-13-13-13--11-10-------10-12-----12-13~-------------/
B---------------------------11-10--------10--------------------/
G--------------------------------------------------------------/
D--------------------------------------------------------------/
A--------------------------------------------------------------/
E--------------------------------------------------------------/

Guitarra eléctrica:

E------------------------------------------------/
B------------------------------------------------/
G--------5--5---5/7--5---------------------------/
D----5/7------7--------5/7-5----------5/7-5------/
A--8-------------------------8--5-8-5-------8----/
E------------------------------------------------/

E-------------------------------------------------/
B-------------------------------------------------/
G-------------------------------------------------/
D-----------------5/7-7--5----------6~p5----------/
A--8-4/5-----5-8-----------8--5-8-5------8~-------/
E--------8----------------------------------------/

E----------------------------------------------------/
B----------------------------------------------------/
G--------5----5---5/7--5-----------------------------/
D----5/7----7---7--------5/7-5---------5/7-5---------/
A--8---------------------------8-5-8-5-------8~------/
E----------------------------------------------------/

E-------------------------------------------------/
B-------------------------------------------------/
G-------------------------------------------------/
D-----------------5/7-7--5----------6~p5----------/
A--8-4/5-----5-8-----------8--5-8-5------8~-------/
E--------8----------------------------------------/

Escuchen bien esta parte para que no se pierdan:

E-------------------------------------------------/
B-----------------------------10-8----------------/
G--------------------------10------10-------------/
D-----------------10-10/12------------------------/
A--8--8-8-8-10/12---------------------------------/
E-------------------------------------------------/

E--11-11-11-11-11-11--10-8--------10-12-----12-13~-------------/
B---------------------------11-10--------10--------------------/
G--------------------------------------------------------------/
D--------------------------------------------------------------/
A--------------------------------------------------------------/
E--------------------------------------------------------------/

E--13-13-13-13-13-13--11-10-------10-12-----12-13~-------------/
B---------------------------11-10--------10--------------------/
G--------------------------------------------------------------/
D--------------------------------------------------------------/
A--------------------------------------------------------------/
E--------------------------------------------------------------/

-----------------------------------------------------------

Después suenan muy despacio los teclados y suena 3 veces más la
guitarra:
                                          P.M.

E-----------------|------------------|--1-1---------------------/
B--20^(22)-20p18--|--13h15-13--------|--x-x---------------------/
G-----------------|------------------|--------------------------/
D-----------------|-----------15-15--|--------------------------/
A-----------------|------------------|--------------------------/
E-----------------|------------------|--------------------------/

-----------------------------------------------------------

Sin duda un gran tema de Charly.

Dudas, comentarios y sugerencias al correo.

De momento creo que es todo.

SNM
Versión 2 - Pubis Angelical (Tablatura para guitarra (TAB))

Esto es básicamente la tab de 'Pubis Abgelical'
de Patricio Mac Adden (pato_ma@hotmail.com), a mi
parecer, bastante mejorada (en la otra tab está
muy simple y tiene un par de errores, además de que
le falta el puente).
Comentarios y sugerencias bienvenidos y agradecidos.


s = slide
v = vibrato
b = bend


Esta parte se repite dos veces. La primera vez toca (1) en B, y la
segunda toca (2) en G. Después viene el puente que conecta con lo último.



E |--------------------------------------------------------------------------
B |------1-(1)-1---3-1-------------------------------------------------------
G |----2---(2)---2-------------------------------------2-2b3-0---------2v----
D |--3-----------------7s5-5s3-0-3-0-5s7s5s3-3-0---0-3---------3-0-3-0-----3-
A |----------------------------------------------3---------------------------
E |--------------------------------------------------------------------------


Puente:


E |-------------------5s3----------
B |-----------------6-----6--------
G |----------5-5--7----------------
D |--3-3-5s7-----------------------
A |--------------------------------
E |--------------------------------


Después:


E |-11-11-11-11-11-11-------------10-12----12-13-
B |-------------------15-13----------------------
G |-------------------------15-14-------14-------
D |----------------------------------------------
A |----------------------------------------------
E |----------------------------------------------


E |-13-13-13-13-13-13-------------10-12----12-13-
B |-------------------16-15----------------------
G |-------------------------15-14-------14-------
D |----------------------------------------------
A |----------------------------------------------
E |----------------------------------------------

El material contenido en esta página es para exclusivo uso privado y con propósito meramente educativo, se prohibe su reproducción y uso con fines comerciales