Nuevos Trapos

Acordes de la canción 'Nuevos Trapos' de Charly García

Versiones de esta canción: Tablatura para bajo (bass tab) - Letra y acordes

Intro:

      F4/7 E4/7 Eb4/7 D4/7 Fsus4/C

G|------------------------------------------------------------------------
D|------------------------------------------------------------------------
A|----8--8-7--7-6--6-5--5-3----------3-----3----------3-------------------
E|-----------------------------3--6-------------3--6---------------------- X2

Estrofa:

     G7                                           G7  Gb7

G|------------------------------------------------------------------------
D|----5---5-------------5---------5------5---5-------------5--4-----------
A|-----------5--8-----------5--8----------------5--8----------------------
E|------------------3-----------------3----------------3------------------

     F7                             Csus4/G

G|------------------------------------------------------------------------
D|--------3---3---------3--------3--4--5-----5---5----------5---------5---
A|---------------3--7------3--7---------------------5--8--------5--8------
E|----1-----------------------------------3------------------------------- X2

Intro

Estribillo:

     Eb

G|------------------------------------------------------------------------
D|------------------------------------------------------------------------
A|----6------------------3-----------6-----------------3------------------
E|-----------------3--6--------------------------3--6---------------------

     Ebmaj7 Bb/F Fsus4/C Csus4/G

G|------------------------------------------------------------------------
D|-------------3-----------------5---5---------------5---5----------------
A|----6--------------3------------------5--8----------------5--8----------
E|-------------------------3--------------------3------------------------- X2

Intro

Estrofa

Intro

Estribillo

Intro repetida hasta el final
Versión 2 - Nuevos Trapos (Letra y acordes)
Intro: (F4/7 | E4/7 | Eb4/7 | D4/7 | Fsus4/C ) x2

 G7
Daría cualquier cosa por amor
                            G7  Gb7 F7
daría cualquier cosa por poder llegar un poco más
         F7   Csus4/G
más de lo que puedo dar.

Pero a la vez quiero decirte que
te encargues de tu vida porque yo no soy mejor que vos
vos no sos mejor que yo.

(F4/7 | E4/7 | Eb4/7 | D4/7 | Fsus4/C ) x2

Estribillo:

Eb                                          (G Bb C)*
Y aunque cambiemos de color las trincheras
Eb                                          (G Bb C)*
y aunque cambiemos de lugar las banderas
          Ebmaj7    Bb/F Fsus4/C   Csus4/G
siempre es como la primera          vez.

Y mientras todo el mundo sigue bailando
se ven dos pibes que aún siguen buscando
encontrarse por primera vez.

(F4/7 | E4/7 | Eb4/7 | D4/7 | Fsus4/C ) x2

(G7 | G7 | Gb7 | F7 | F7 | Csus4/G)

Habiendo compartido aquél temor
habiendo convivido en ésta desolación total
ya no es necesario más.

(F4/7 | E4/7 | Eb4/7 | D4/7 | Fsus4/C ) x2

Estribillo:

Y aunque cambiemos de color las trincheras
y aunque cambiemos de lugar las banderas
siempre es como la primera vez.

Y mientras todo el mundo sigue bailando
se ven dos pibes que aún siguen buscando
encontrarse por primera vez.

F4/7 | E4/7 | Eb4/7 | D4/7 | Fsus4/C (lo repite hasta el final)

*Las notas entre parentesis son notas individuales (octavas en este caso),
osea, que no se tocan como si fueran acordes.

El material contenido en esta página es para exclusivo uso privado y con propósito meramente educativo, se prohibe su reproducción y uso con fines comerciales