Nos siguen pegando abajo

Acordes de la canción 'Nos siguen pegando abajo' de Charly García

Versiones de esta canción: Tablatura para bajo (bass tab) - Letra y acordes - Letra y acordes - Tablatura para bajo (bass tab) - Letra y acordes

Está construida principalmente a través de las notas de los acordes
(tónica y octava en las estrofas; tónica, tercera y quinta en el estribillo)
y pequeñas uniones cromáticas entre ellos.

La rítmica tiene cierta complejidad en el riff principal por su polirritmia:
el riff está en 7/4 mientras que la batería electrónica se mantiene en 4/4.
Esto genera un desfasaje (el comienzo del riff no coincide con el comienzo del
compás de la batería) hasta que vuelve a coincidir luego de 4 repeticiones.
Escuchar el tema para la rítmica.

Genialidad interpretada por el maestro Pedro Aznar

RIFF
 G     D      A        E     (x4)
-------------------------------||
-------5-----------------------||
-------------------------------||
-3-----------0-5/4/5/4-0---0-2-||

ESTROFA (Ella es menor...)
 G               D               A               E
-------------------7-------------------------------9----9-7----|
---5-------------------------------7---------------------------|
-----------0-7-6-5---5---------------------0-5-6-7----7--------|
-3---3---------------------0-3-4-5---5-------------------------|

 G               D               A               E
-------------------7-------------------------------9-----------||
---5-------------------------------7---------------------------||
-----------0-7-6-5---5---------------------0-5-6-7----7--------||
-3---3---------------------0-3-4-5---5-------------------0-5-7-||

ESTRIBILLO (Lo están golpeando todo el tiempo...)
 C               G                 B               E      D
------------------------------------------------------------------|
------------------------------------------------------------------|
-------7-----10----------2-----5-----------6---9---7----7-5---0-2-|
-8-----------------3---------------7-----7------------------------|

 C               G               D               D
-----------------------------------------------------------------||
-----------------------------------------------------------------||
-3---------------------2-----3-4-5-----5-------5-5----5-5--------||
-------0-----1-2-3-------------------------------------------5---||

           Variación de los     --7----7-----------7----7--------||
          últimos dos compases  ---------------------------------||
          (para el próximo      -5---5--------5--5----5----------||
             estribillo)        -----------------------------5---||

RIFF (x4) + ESTROFA + ESTRIBILLO (con variación final) + RIFF (x4)

INTER
 E            x3
----------------|-----------------|
----------------|-----------------|
----------------|-------------0-2-|
-0-----0--------|-0-----0---------|

TARAREO (sobre el siguiente riff)
 C    G     D       A     (x4)
--5-------------------------|
----------5-----------------|
-3----------5/4/5/4-0---0-2-|
------3---------------------|

ESTROFA (Estoy yendome...)
ESTRIBILLO
RIFF (x4 sin bajo, después con bajo hasta el final)


Me ayudó mucho a sacar este tema el cover de Andrés Cruzat que está en Youtube.
Puede servirles para sacarlo uds.
Pueden usar la herramienta para disminuir el tempo
a la mitad, tuerquita abajo a la derecha.


Saludos!
Dudas o correcciones: valentino1708@hotmail.com
Versión 2 - Nos siguen pegando abajo (Letra y acordes)
SOL RE LA MI (4 Veces)


SOL            RE
Ella es menor, él es normal
  LA                            MI
y lo que están haciendo es un pecado mortal.
SOL               RE
ella se quedó sin boda ni arroz
     LA                       MI
y al novio lo agarraron entre mucho más que dos.


              DO                    SOL
1.-)Mira lo están golpeando todo el tiempo,
       SI                     DO con puente
    lo vuelven, vuelven a golpear.
        DO     SOL      RE SOL
    nos siguen pegando aba-jo.


SOL RE LA MI (4 Veces)


    SOL                   RE
Yo estaba en un club, no había casi luz
   LA                        MI
la puerta de salida tenía un fondo azul.
   SOL          RE
el se desmayó delante de mí
    LA                          MI
no fueron las pastillas fueron los hombres de gris.


Repetir Estrofa 1


SOL               RE
Ma, ma, ma, estoy yéndome
     LA         MI
como una luz apagándose
SOL               RE
Desde el piso los pude ver
      LA            MI
locos de placer, alejándose.


Repetir Estrofa 1
Versión 3 - Nos siguen pegando abajo (Letra y acordes)
Corrección del tema 'Nos siguen pegando abajo' de Charly García

Esta transcripción ya la mandé antes pero quizás por algún
inconveniente no llegó. Acá va de vuelta.

Intro:[E  G  D  A  E] x4

G              D
Ella es menor, él es normal
   A
y lo que están haciendo
         E
es un pecado mortal.

Ella se quedó sin boda ni arroz
y al novio lo agarraron
entre muchos más que dos.

           C9                     G9
Miren lo están golpeando todo el tiempo,
   D7/B                    E   D
lo vuelven, vuelven a golpear.
    C9     G9       Dsus4
Nos siguen pegando abajo.

Inter: como Intro.

Yo estaba en un club, no había casi luz,
la puerta de salida
tenía un farolito azul.

Él se desmayó delante de mí.
No fueron las pastillas,
fueron los hombres de gris.

Miren lo están golpeando...

Inter.

 G                 D
Ma, ma, ma, estoy yéndome.
       A             E
Soy como una luz apagándose.
 G                 D
Desde el piso los pude ver
       A             E
locos de placer, alejándose.

Miren lo están golpeando...
Versión 4 - Nos siguen pegando abajo (Tablatura para bajo (bass tab))
holas gente komo estan bueno esta es mi primera transcrpcion
bueno ahi se las dejo:

intro:

primero empiesa la guitarra sola x4
y luego entra el bajo


 G|--------------------------------|
 D|--------------------------------| x4
 A|-------------5------------------|
 E|----0--2/3-------5/4-5/4--------|

verso 1:

      ella es menor, el es normal.........
 G|-------------------------------------------|
 D|-------------------------------------------|
 A|-------------5-55---------7-7/5/7/5--------|
 E|-0--2/3-33----------5-55-------------------|

      ella se quedo sin boda ni arooz......
 G|------------------------------------------|
 D|------------------------------------------|
 A|------------5-55----------7-77------------|
 E|----3-33-----------5-55-------------------|

     miren lo estan golpeando todo el tiempo.........
 G|---------------|---------------|-----------------|-------------|
 D|---2-------1---|---------------|---1-------4-----|--2-2/0------|
 A|-----3---------|---2-------1---|-----2-----------|-------------|
 E|---------------|-----3---------|-----------------|-------------|

       nos siguen pegando abajo
 G|------------------------------------------|
 D|------------------------------------------|
 A|-----3-33-----------5-55-5-55-------------|
 E|-----------3-33---------------------------|

aka en intro empiesa diferente al principio pero luego es igual

 G|--------------------------------|
 D|-------------------------- -----|
 A|-----------5--------------------| x1
 E|-------3-------5/4-5/4----------|

 G|--------------------------------|
 D|--------------------------------| x3
 A|-------------5------------------|
 E|----0--2/3-------5/4-5/4--------|

verso 2:

      yo estaba en un club, no habia.........
 G|-------------------------------------------|
 D|-------------------------------------------|
 A|-------------5-55---------7-7/5/7/5--------|
 E|-0--2/3-33----------5-55-------------------|

      el se desmayo delante de mi no fueron......
 G|------------------------------------------|
 D|------------------------------------------|
 A|------------5-55----------7-77------------|
 E|----3-33-----------5-55-------------------|

     miren lo estan golpeando todo el tiempo.........
 G|---------------|---------------|-----------------|-------------|
 D|---2-------1---|---------------|---1-------4-----|--2-2/0------|
 A|-----3---------|---2-------1---|-----2-----------|-------------|
 E|---------------|-----3---------|-----------------|-------------|

       nos siguen pegando abajo
 G|------------------------------------------|
 D|------------------------------------------|
 A|-----3-33-----------5-55-5-55-------------|
 E|-----------3-33---------------------------|

intro:

 G|--------------------------------|
 D|-------------------------- -----|
 A|-----------5--------------------| x1
 E|-------3-------5/4-5/4----------|

 G|--------------------------------|
 D|--------------------------------| x3
 A|-------------5------------------|
 E|----0--2/3-------5/4-5/4--------|

y luego hay un kambio en la guitarra y el bajo:


 G|-----------------------------|
 D|-----------------------------|
 A|-----------------------------|
 E|----0-00-0-00-0--------------|

y entra

       na, nara.........
 G|-----------------------------|
 D|-----------------------------|
 A|-----3--------5/4/5/4--------|
 E|--------33-------------55----|

    Ma, ma, ma, estoy yéndome.........
 G|-------------------------------------------|
 D|-------------------------------------------|
 A|-------------5-55---------7-7/5/7/5--------|
 E|-0--2/3-33----------5-55-------------------|

     Desde el piso los pude ver......
 G|------------------------------------------|
 D|------------------------------------------|
 A|------------5-55----------7-77------------|
 E|----3-33-----------5-55-------------------|

     miren lo estan golpeando todo el tiempo.........
 G|---------------|---------------|-----------------|-------------|
 D|---2-------1---|---------------|---1-------4-----|--2-2/0------|
 A|-----3---------|---2-------1---|-----2-----------|-------------|
 E|---------------|-----3---------|-----------------|-------------|

       nos siguen pegando abajo
 G|------------------------------------------|
 D|------------------------------------------|
 A|-----3-33-----------5-55-5-55-------------|
 E|-----------3-33---------------------------|


intro: todo hasta el final de la cancion

 G|--------------------------------|
 D|-------------------------- -----|
 A|-----------5--------------------| esat una ves
 E|-------3-------5/4-5/4----------|

 G|--------------------------------|
 D|--------------------------------|
 A|-------------5------------------| esta parte se repite todo
 E|----0--2/3-------5/4-5/4--------|

bueno aka ta todo la partitura del bajo bueno kualkier konsulta
aka les dejo mi korreo karnash145@hotmail.com
Versión 5 - Nos siguen pegando abajo (Letra y acordes)
Esta tab la toco en guitarra acústica y sale re bien, a
demás de ser bien fácil, solo 7 acordes..
El rasgueo del verso y coro es típico de una canción en 4/4:
Abajo-Abajo-Arriba-Arriba-Abajo-Arriba.

El Riff de la intro se toca de la siguiente manera:

   v v  ^ ^ v  v v v  ^ v
|--3-3--3-3-3--0-0-0--0-0--|
|--3-3--2-2-2--2-2-2--0-0--|
|--0-0--3-3-3--2-2-2--1-1--|
|--0-0--0-0-0--2-2-2--2-2--|
|--2-2---------0-0-0--2-2--|
|--3-3----------------0-0--|
   G    D      A      E
v = se rasguea hacia abajo
^ = se rasguea hacia arriba

Intro: G  D  A  E x4

Estrofa:
G              D
Ella es menor, él es normal
   A
y lo que están haciendo
         E
es un pecado mortal.
G             D
Ella se quedó sin boda ni arroz
A
y al novio lo agarraron
 E
entre muchos más que dos.

Coro:
  C9                     G
Miren lo están golpeando todo el tiempo,
   B7                        E   D
lo vuelven, vuelven a golpear.
 C9        G       Dsus
Nos siguen pegando abajo.

Tocar Intro x4

Estrofa: (se repiten los acordes anteriores)
Yo estaba en un club, no había casi luz,
la puerta de salida
tenía un farolito azul.

Él se desmayó delante de mí.
No fueron las pastillas,
fueron los hombres de gris.

Coro (se repite)

Intro x4

Estrofa: (lo mismo de arriba)

Ma, ma, ma, estoy yéndome.
Soy como una luz apagándose.
Desde el piso los pude ver
locos de placer, alejándose.

Coro

Intro (ir tocando cada vez mas despacio para terminarlo)

y esa es toda la canción, les recomiendo que la escuchen para
tomar los tiempos!

El material contenido en esta página es para exclusivo uso privado y con propósito meramente educativo, se prohibe su reproducción y uso con fines comerciales