No soy un extraño

Acordes de la canción 'No soy un extraño' de Charly García

Versiones de esta canción: Tablatura para bajo (bass tab) - Letra y acordes

Primeras 2 estrofas

Acabo de llegar...

G: ---------------------------------
D: ---------------------------------
A: -------6-66--4-44----------------
E: -3-33--------------2-22----------

y se queda en   C#
(ahi podes jugar con octavas queda bien)


repite todo...
G: ---------------------------------
D: ---------------------------------
A: -------6-66--4-44----------------
E: -3-33--------------2-22----------


y viene el estribillo

G: --------------------- -------------------
D: --------------------- -------------------
A: -----------0-0------- ----------6-6--5-5-
E: -3-3--1-1------0-0--- -3-3--1-1----------

y se queda en G
(ahi te conviene dejarlo sonando asi tipo bola)



bueno ahi
repite todo de nuevo, osea estrofa y estribillo


G: ---------------------------------
D: ---------------------------------
A: -------6-66--4-44----------------
E: -3-33--------------2-22----------
se queda en C#
(dos veces)


y
G: --------------------- -------------------
D: --------------------- -------------------
A: -----------0-0------- ----------6-6--5-5-
E: -3-3--1-1------0-0--- -3-3--1-1----------

y atencion aca que hay un cambio de tonalidad
enves de quedarse en G, repite el estribillo
pero todo subido un tono.
es decir...

G: --------------------- -------------------
D: --------------------- -------------------
A: -----------2-2------- -------------------
E: -5-5--3-3------2-2--- -5-5--3-3-1-1--0-0-

y se queda en A hasta que termina


ESPERO QUE LES SIRVA MI MAIL ES JUAN_5_87
Versión 2 - No soy un extraño (Letra y acordes)
Corrección del tema 'No soy un extraño' de Charly García.

Gm7    Ebmaj7        Dbmaj7   Gbmaj7
 Acabo de llegar, no soy un extraño.
Gm7        Ebmaj7           Dbmaj7       Gbmaj7
 Conozco esta ciudad, no es como en los diarios
       Dbmaj7
desde allá.

Dos tipos en un bar se toman las manos.
Prenden un grabador y bailan un tango
de verdad.

Gm7                   F9
 Y yo los miro sin querer mirar
Am7                      Em7/9/11
 y enciendo un faso para despistar.
Gm7                    F9
 Me quedo piola y empiezo a pensar
 
           Ebmaj7         Dsus4         D   Gm7/9
que no hay que pescar dos peces con la misma red.

Acabo de mirar las luces que pasan.
Acabo de cruzar la plaza, las razas
y el color.

Y siento un humo como familiar,
alguien se acerca y comienza a hablar.
Me quedo piola y digo qué tal
vamos a pescar dos peces con la misma red.

Am7                       G
 Desprejuiciados son los que vendrán
Bm7                         F#m7
 y los que están ya no me importan más.
Am7                     G9
 Los carceleros de la humanidad
        F9          Esus4         E    Am7/9
no me atraparán dos veces con la misma red.

El material contenido en esta página es para exclusivo uso privado y con propósito meramente educativo, se prohibe su reproducción y uso con fines comerciales