Mr. Jones

Acordes de la canción 'Mr. Jones' de Charly García

Versiones de esta canción: Letra y acordes - Letra y acordes

Secuencia sobre acordes

    A
Mr. Jones abrió la puerta
         B7
vió a su madre recién muerta
      E5       D5    C#5  B5    A     E7
y la sangre en el chaleco se limpió.-


Guardó a su madre en el ropero
le puso más leña al fuego
el invierno muy crudo se avecinó.-



             D
Llamó a su esposa y le dijo:
            A
"mamá está muerta en el ropero",
        B7                  E  E7
"por supuesto si yo la asesiné".-



Ella puso mal la mesa
le dí un hacha en la cabeza
y la sangre el tapizado me manchó.- (Ay! que pena nena!)


Solo


      A
Y Mr. Jones trabajaba
       B7
y su esposa asesinaba
      E                        A  E7
y los chicos correteaban por ahí.-


Se comían los pajaritos,
los perros y los gatitos
y otros bichos que vagaban por ahí.-


     D
Y llegó la policía
       A
con un carro y dos tranvías
     B7                     E  E7
para toda la familia encarcelar.-


      A
Yo no sé porque el sargento
      B7
me llevo al destacamento
      E                        A5 G#5 G5 F#7
si somos una familia muy normal,
      B7       E            A5 G#5 G5 F#7
si somos una familia muy normal,
      B7       E            A7
si somos una familia muy normal...



Secuencia
  A              B7              E5  D5  C#5 B5  A E7
E--------------------------------------------------0---
B------------------------------------------------2-3---
G--------------------------------9-9-7-7-6-6-4-4-2-1---
D--------2-2-4-2---------4-4-6-4-9-9-7-7-6-6-4-4-2-0---
A-0-0-3-4--------2-2-6-6---------7-7-5-5-4-4-2-2-0-2---
E--------------------------------------------------0---
Versión 2 - Mr. Jones (Letra y acordes)
Es 100% correcta...

Intro: D/A/B
(abajo se explican los Riff)

         Riff A
Mr. jones abrió la puerta
         Riff B
Vió a su madre recien muerta
     EE DD C#C# Bb                  AAC#E
y la sangre en el chaleco se limpio

         Riff A
Guardó a su madre en el ropero
         Riff B
le puso mas leña al fuego
     EE DD C#C# Bb                  AAC#E
y el invierno muy crudo se avesino

             D
Llamó a su esposa y le dijo
            A
mamá esta muerta en el ropero
      B                    E
por supuesto si yo la asesiné


RIFF A:
parte desde la 3er cuerda (o sea LA)
-------------------------------------|
-----------2-2-4-2-------------------|
---0-0-4-4---------------------------|
-------------------------------------|
RIFF B:
Parte desde SI en la 3er cuerda
---------------1---------------------|
-------1-1-4-4---4-------------------|
---2-2-------------------------------|
-------------------------------------|

Despues es igual...espero que la entiendan
y escuchen a cancion así les dan los tiempos
de los RIFF'S, suerte
Karr!
PD: dudas, correcciones, saludos... car_eoy@hotmail.com

El material contenido en esta página es para exclusivo uso privado y con propósito meramente educativo, se prohibe su reproducción y uso con fines comerciales