Jugo de tomates

Acordes de la canción 'Jugo de tomates' de Charly García

INTRO

LA7
La tierra que te da la vida
da un tiempo para decidir
eligiendo inteligentemente
todo el mundo podrá ser feliz


SIm7
Jugo de tomate frio

jugo de tomate frio

en las venas
                         riff
en las venas deberas tener.

LA7
Si querés ser un terrible vago
todo el día panza arriba y a dormir
o elegiste ser un tipo capo
siempre serio y que da temor deberas tener.-


Jugo de tomate…


Si queres triunfar con las mujeres
tener muchas que lloren por vos
tendras que ser muy poco inteligente
tener dinero, y una buena voz


Jugo de tomate…


Si queres ser un hombre importante
que se hable todo el día de vos
SI queres inmortalizarte
como héroe, asesino o semidios


Jugo de tomate…




INTRO
                 E5                 A5
e|-------------------------------------
B|-------------------------------------
G|----------------------------------2--
D|---5-----------2------5-----------2--
A|-7---7-5-3-----2----7---7-5-3-----0--
E|-----------5-3-0--------------5-3----



Riff
e|---------------
B|---------------
G|---5-9---5-----
D|-7-----7---7-7-
A|---------------
E|---------------

El material contenido en esta página es para exclusivo uso privado y con propósito meramente educativo, se prohibe su reproducción y uso con fines comerciales