Himno Nacional Argentino

Acordes de la canción 'Himno Nacional Argentino' de Charly García

Versiones de esta canción: Letra y acordes - Tablatura para guitarra (TAB) - Tablatura para guitarra (TAB) - Acordes para piano o teclado (con notas)

Himno Nacional Argentino
Letra: Vicente López y Planes
Música: Blas Parera
(Transporte en I)   


Versión reducida que se canta habitualmente:

A A A
E E E E A
B A D A E D A E E7
A A A E E E A A E E A A D E A
D E A D E A
A A A A

          A          E       A
 Oíd, mortales, el grito sagrado:
  A7    D         E   E7    A
 ¡libertad, libertad, libertad!
          A      B7       E    E7
 Oíd el ruido de rotas cadenas,
          D        B7          E  E7
 ved en trono a la noble igualdad.
        Am      Dm         F E
 Ya su trono dignísimo abrieron
  E7     Am Am/G   F B7       E  E7
 las provin-cias uni-das del sud,
       Am          E        Am
 y los libres del mundo responden:
          Am          E     Am
 al gran pueblo argentino salud,
Am/G       F         B7      E  E7
 al gran pueblo argentino salud.
        A         F#m       Bm    Dm
 Y los libres del mundo responden:
           A          E      A
 al gran pueblo argentino salud.

E E A A E E A A A
A E A D E A A

        A             A
 SEAN ETERNOS LOS LAURELES
        A           A
 QUE SUPIMOS CONSEGUIR,
        D     B7    E  E7
 QUE SUPIMOS CONSEGUIR...
     F#m       Bm       A  B7  E
 CORONADOS DE GLORIA VIVA-AAAA-AMOS,
      A          E     A
 O JUREMOS CON GLORIA MORIR.
 D    A          E     A
 O JUREMOS CON GLORIA MORIR.
 D    A          E     A
 O JUREMOS CON GLORIA MORIR.

A A A A


Versión completa:

 Oíd, mortales, el grito sagrado:
 ¡libertad, libertad, libertad!
 Oíd el ruido de rotas cadenas,
 ved en trono a la noble igualdad.
 Se levanta a la faz de la tierra
 una nueva y gloriosa nación,
 coronada su sien de laureles,
 y a sus plantas rendido un león.

 SEAN ETERNOS LOS LAURELES
 QUE SUPIMOS CONSEGUIR,
 CORONADOS DE GLORIA VIVAMOS,
 O JUREMOS CON GLORIA MORIR.

 De los nuevos campeones los rostros
 Marte mismo parece animar,
 la grandeza se anida en sus pechos,
 a su marcha todo hacen temblar.
 Se conmueven del inca las tumbas
 y en sus huesos revive el ardor,
 lo que ve renovando a sus hijos
 de la patria el antiguo esplendor.

 SEAN ETERNOS LOS LAURELES...

 Pero sierras y muros se sienten
 retumbar con horrible fragor,
 todo el país se conturba por gritos
 de venganza, de guerra y furor.
 En los fieros tiranos la envidia
 escupió su pestífera hiel,
 su estandarte sangriento levantan
 provocando a la lid más cruel.

 SEAN ETERNOS LOS LAURELES...

 ¿No los véis sobre México y Quito
 arrojarse con saña tenaz?
 ¿Y cual lloran, bañados en sangre,
 Potosí, Cochabamba y la Paz?
 ¿No los veis sobre el triste Caracas
 luto y llantos, y muerte esparcir?
 ¿No los veis devorando cual fieras
 todo pueblo que logran rendir?

 SEAN ETERNOS LOS LAURELES...

 A vosotros se atreve, argentinos,
 el orgullo del vil invasor:
 vuestros campos ya pisa contando
 tantas glorias hollar vencedor.
 Mas los bravos que unidos juraron
 su feliz libertad sostener
 a estos tigres sedientos de sangre
 fuertes pechos sabrán oponer.

 SEAN ETERNOS LOS LAURELES...

 El valiente argentino a las armas
 corre ardiendo con brío y valor,
 el clarín de la guerra, cual trueno
 en los campos del sud resonó.
 Buenos Aires se opone a la frente
 de los pueblos de la inclita unión,
 y con brazos robustos desgarran
 al ibérico altivo león.

 SEAN ETERNOS LOS LAURELES...

 San José, San Lorenzo, Suipacha,
 ambas Piedras, Salta, y Tucumán,
 la colonia y las mismas murallas
 del tirano en la banda oriental,
 son letreros eternos que dicen:
 aquí el brazo argentino triunfó,
 aquí el fiero opresor de la Patria
 su cerviz orgullosa dobló.

 SEAN ETERNOS LOS LAURELES...

 La victoria al guerrero argentino
 con sus alas brillantes cubrió,
 y azorado a su vista el tirano
 con infamia a la fuga se dio;
 sus banderas, sus armas se rinden
 por trofeos a la libertad,
 y sobre alas de gloria alza el pueblo
 trono digno a su gran majestad.

 SEAN ETERNOS LOS LAURELES...

 Desde un polo hasta el otro resuena
 de la fama el sonoro clarín,
 y de América el nombre enseñando
 les repite: ¡mortales, oíd!
 Ya su trono dignísimo abrieron
 las provincias unidas del sud,
 y los libres del mundo responden:
 al gran pueblo argentino salud.

 SEAN ETERNOS LOS LAURELES...



         
|||||| 1 
||OOO|   
||||||   
||||||   
A           
|||O|| 1 
|OO|||   
||||||   
||||||   
E           
|||||| 1 
OOOOOO   
||||||   
||OOO|   
B  x        
|||||| 1 
|||O|O   
||||O|   
||||||   
D           
|||O|| 1 
|O||||   
||||||   
||||||   
E7           
|||||| 1 
||O|O|   
||||||   
||||||   
A7           
|||||| 1 
OOOOOO   
||||||   
||O|O|   
B7           
||||O| 1 
||OO||   
||||||   
||||||   
Am  x        
|||||O 1 
|||O||   
||||O|   
||||||   
Dm  
         
OOOOOO 1 
|||O||   
|OO|||   
||||||   
F           
||||O| 1 
||OO||   
O|||||   
||||||   
Am/G           
|||||| 1 
OOOOOO   
||||||   
|OO|||   
F#m           
|||||| 1 
OOOOOO   
||||O|   
||OO||   
Bm
Versión 2 - Himno Nacional Argentino (Tablatura para guitarra (TAB))
 HIMNO NACIONAL ARGENTINO.
 LETRA ORIGINAL: LOPEZ - PLANES
 MÚSICA ORIGINAL: BLAS PARERA
 
 ANOTACIONES:
 ESTA VERSIÓN ESTA CAMBIADA, LA SAQUE DE OIDO DE
 EL DISCO "FILOSOFIA BARATA Y ZAPATOS DE GOMA" DE CHARLY GARCIA,
 QUIEN LE HIZO TODOS LOS ARREGLOS Y CAMBIOS QUE TIENE.
 LA VERSION ORIGINAL ESTÁ TOCADA EN SI BEMOL Y ESTA, ESTÁ EN DO Y SE
 LE QUITARON ALGUNAS PARTES.
 EL TEMA ESTA TOCADO CON TECLADOS PERO YO LE HICE LA ADAPTACION A GUITARRA.
 EL TEMA ES SIN DISTORSION, SALVO EN LOS ACORDES MARCADOS Y EN EL SOLO DEL FINAL,
 EL CUAL ES IMPROVISADO Y NO SE PUEDE TRANSCRIBIR.
 SEPAN DISCULPAR QUE NO LE PUSE TIEMPO, YA QUE NO SE COMO SE ESCRIBE, PERO EL TIEMPO
 SALE SOLO.
 BUENO, A TOCARLO QUE NO ES DIFICIL.
 ********** = ESTAS PARTES CHARLY GACIA NO LAS TOCA. 

 e-------------3--]------------------]----------------]---5-3-2-----3-]----------------]
 B------5---------]-6---3------------]---------3------]--5------6-3---]-5--6-5-3-6-5-3-]
 G---5-----5------]---------4--------]-4-4-4-5---5----]---------------]---5------------]
 D----------------]------------------]----------------]---------------]----------------]
 A----------------]------------------]----------------]---------------]----------------]
 E----------------]------------------]----------------]---------------]----------------]
   _____________
  /*************\ 
 e----------------]-----------3------]-----3----------]-----3-2-1-----]
 B-----------5-6-8]-8-6-3-3-5---6-3--]-3-5---6-3-- ---]-3-5-----------]
 G---2-4-5-7------]------------------]----------------]---------------]
 D-5--------------]------------------]----------------]---------------]
 A----------------]------------------]----------------]---------------]
 E----------------]------------------]----------------]---------------]

 e----------------]------------------]----------------]---------------]
 B-5-3------------]-5-3--------------]-6-5-3-3-3-3----]-6-5-3-3-3-3---]
 G-----4-4-4-4----]-----4-4-4-4------]----------------]---------------]
 D----------------]------------------]----------------]---------------]
 A----------------]------------------]----------------]---------------]
 E----------------]------------------]----------------]---------------]

 e----------------]------------------]----------------]---------------]----------------]
 B-8-6-5-5-5-5----]-8-6-5-5-5-5------]-10-8-6-6-6-6---]-12-10-8-8-8-8-]-13-------------]
 G----------------]------------------]----------------]---------------]----------------]
 D----------------]------------------]----------------]---------------]----------------]
 A----------------]------------------]----------------]---------------]----------------]
 E----------------]------------------]----------------]---------------]----------------]
   ______________                   ______________
  /**************\                  /**************\
 e----------------]------------------]----------------]---------------]----------------]
 B-------5-8-8----]-8-6--------------]------5-8-8-----]-8-6-----------]-5---5---5------]
 G-----5----------]-----7------------]----5-----------]-----7---------]---5---5---5-5--]  
 D---5------------]-------9-10-------]---5------------]-------9-------]----------------]
 A-7--------------]------------------]-7--------------]---------10----]----------------]
 E----------------]------------------]----------------]---------------]----------------]
  ___________________________________
 / CON DISTORCION  C-Csus4-C           \
 e----0-----------]--------------0---]
 B----1-----------]--------------1---]
 G----0-----------]--------------0---]
 D----2-----------]----3---------2---]
 A----3-----------]----3---------3---]
 E----0-----------]----0---------0---]


 OID MORTALES EL GITO SAGRADO: LIBERTAD, LIBERTAD ¡LIBERTAD!
 OID EL RUIDO DE ROTAS CADENAS, VED EN TRONO A LA NOBLE IGUALDAD.
 YA A SU TRONO DIGNISIMO ABRIERON; LAS PROVINCIAS UNIDAS DEL SUD,
 Y LOS LIBRES DEL MUNDO RESPONDEN, AL GRAN PUEBLO ARGENTINO SALUD
 Y LOS LIBRES DEL MUNDO RESPONDEN, AL GRAN PUEBLO ARGENTINO SALUD
  

 e----------------]------------------]----------------]---------------]
 B-5-3------------]-5-3--------------]-6-5-3-3-3-3----]-6-5-3-3-3-3---]
 G-----4-4-4-4----]-----4-4-4-4------]----------------]---------------]
 D----------------]------------------]----------------]---------------]
 A----------------]------------------]----------------]---------------]
 E----------------]------------------]----------------]---------------]

 e----------------]------------------]----------------]---------------]----------------]
 B-8-6-5-5-5-5----]-8-6-5-5-5-5------]-10-8-6-6-6-6---]-12-10-8-8-8-8-]-13-------------]
 G----------------]------------------]----------------]---------------]----------------]
 D----------------]------------------]----------------]---------------]----------------]
 A----------------]------------------]----------------]---------------]----------------]
 E----------------]------------------]----------------]---------------]----------------]
 
 e----------------]------------------]----------------]---------------]----------------]
 B-------/13\-----]-8-6--------------]-----/13\-------]-8-6-----------]-5---5---5------]
 G----------------]-----7------------]----------------]-----7---------]---5---5---5-5--]  
 D----------------]-------9-10-------]----------------]-------9-------]----------------]
 A----------------]------------------]----------------]---------10----]----------------]
 E----------------]------------------]----------------]---------------]----------------]
  ________________
 /CON DISTORCION C\
 e----0-----------] 
 B----1-----------] 
 G----0-----------] 
 D----2-----------] 
 A----3-----------] 
 E----0-----------] 

 SEAN ETERNOS, LOS LAURELES 
 QUE SUPIMOS CONSEGUIR

 SEAN ETERNOS, LOS LAURELES 
 QUE SUPIMOS CONSEGUIR
 
 CORONADOS DE GLORIAS VIVAMOS

 OHH JUREMOS CON GLORIA MORIR

 OHH JUREMOS CON GLORIA MORIR

 OHH JUREMOS CON GLORIA MORIR.


 e ----------------]
 B -5---5---5------]
 G ---5---5---5-5--]  
 D ----------------]
 A ----------------]
 E ----------------]
  ________________
 /CON DISTORCION C\
 e----0-----------] 
 B----1-----------] 
 G----0-----------] 
 D----2-----------] 
 A----3-----------] 
 E----0-----------]   SOLO. 

 TRANSCRIPCION HECHA POR EZEQUIEL.
 AGRDECIMIENTOS A FACUNDO, QUIEN ME AYUDO A SACAR ALGUNAS PARTES.
 DICIEMBRE DE 1999
 SI TENES ALGUNA DUDA O COMENTARIO ME LLAMO EZEQUIEL Y MI E-MAIL ES maggia@sinectis.com.ar
 SI ALGUIEN SABE LAS CANCIONES "POR" O "CANTATA DE PUENTES AMARILLOS" (DE SPINETTA) 
 POR FAVOR ENVIENMELAS.
 POR FAVOR PARA PUBLICARLA EN OTRAS PAGINAS NO ALTERARLA Y MANTENER 
 EL NOMBRE Y EL E-MAIL.
 DISCULPEN SI HAY ALGUNA FALTA DE ORTOGRAFIA (NO ME ANDA EL CORRECTOR)
 ¡¡¡AGUANTE CHARLY!!!
Versión 3 - Himno Nacional Argentino (Tablatura para guitarra (TAB))
1------------------------------------------------------------------------
2--------------------------------------------------------2-0-----2-0-----
3-----------------------------------------------------------2-2-2---2-2-2
4------2-0---------------4-2-1-0-2---0---0---0---0---0-------------------
5-0-4-0---2-----0-2-0-4-4-------2-4-0-4-2-4-2-4-2-4-2-4-2----------------
6----------4-4-4---------------------------------------------------------

1----------------------------------------------------------------0-0-0---
2-3-2-0-0-0-3-2-0-0-0-5-3-2-2-2-5-3-2-2-2-7-5-3-3-3-9-7-5-5-5-10-2----3-0
3----------------------------------------------------------------2-------
4----------------------------------------------------------------2-------
5----------------------------------------------------------------0-------
6------------------------------------------------------------------------

1---0-0-0--------------0-
2---2----3-0--2-2-2----2-
3-1-2-------1--2-2-2-2-2-
4---2------------------2-
5---0------------------0-
6------------------------
         A          E       A
 Oíd, mortales, el grito sagrado:
  A7    D         E   E7    A
 ¡Libertad, libertad, libertad!
          A      B7       E    E7
 Oíd el ruido de rotas cadenas,
          D        B7          E  E7
 Ved en trono a la noble igualdad.
        Am      Dm         F E
 Ya su trono dignísimo abrieron
  E7     Am Am/G   F B7       E  E7
 las provin-cias uni-das del sud,
       Am          E        Am     E
 y los libres del mundo responden:
          Am          E     Am
 al gran pueblo argentino salud,
Am/G       F         B7      E  E7
 Al gran pueblo argentino salud.
        A         F#       Bm    Dm
 Y los libres del mundo responden:
           A          E      A
 Al gran pueblo argentino salud.

1-------------------------------------------------------------------
2-2-0-----2-0-----3-2-0-0-0-3-2-0-0-0-5-3-2-2-2-5-3-2-2-2-7-5-3-3-3-
3----2-2-2---2-2-2--------------------------------------------------
4-------------------------------------------------------------------
5-------------------------------------------------------------------
6-------------------------------------------------------------------

1--------------0------0-0-0------------0
2-9-7-5-5-5-10-2-3-0--2----3-0--2-2-2--2
3--------------2----1-2-------1--2-2-2-2
4--------------2------2----------------2
5--------------0------0----------------0
6---------------------------------------


        A            E      A
 SEAN ETERNOS LOS LAURELES
        A     E     A
 QUE SUPIMOS CONSEGUIR,
 A             E      A
 SEAN ETERNOS LOS LAURELES
       D     B7    E  E7
 QUE SUPIMOS CONSEGUIR...
     Bm         E       A  B7  E
 CORONADOS DE GLORIA VIVA-AAAA-AMOS,
      A          E     A
 O JUREMOS CON GLORIA MORIR.
 D    A          E     A
 O JUREMOS CON GLORIA MORIR.
 D    A          E     A
 O JUREMOS CON GLORIA MORIR.
 D    A          E     A
 O JUREMOS CON GLORIA MORIR
A A A A



mi e-mail es:carlosrugby@hotmail.com
Versión 4 - Himno Nacional Argentino (Acordes para piano o teclado (con notas))
Himno Nacional Argentino (versión corta)

Arreglado por Charly García.

Acá suena bien el  teclado en Brass (o sonido parecido a este).
Si se puede, agregar un String y/o órgano de tubos
Hay que escuchar bien las notas que hace, porque alguna
las va sumando de a una en una, o combinando
las que ya están presionadas.
Nos ponemos de pie.


Intro:

c4-----e4---g4----d4---b3---b3--c4-d4-c4
c3/g3------d3-----------b2----------------c3

---e4----a4--g3-f#3-f3-d3—g3-e3—c3
e3------c#3-----d3------b2------c3------

f4-e4-d4----f4-e4-d4-----g4-f4-d4---g4-f4-d4------g4-f#4---f4
f3-e3-d3 ---f3-e3-d3-----g3-f3-d3----g3-f3-d3-----g3-f#3---f3

e4-d4-c4-c4-c4-c4  (x2)   f4-e4-d4-d4-d4-d4 (x2)
c3                        c3

g4-f4-e4-e4-e4-e4 (x2)    a4-g4-f4-f4-f4-f4    b4-a4-g4-g4-g4-g4-----c5
c3                        c3                   c3                    c3

g4-f4-d4-b3-c4    (x2) -
g3-f3-d3-b2-c3

e4-c4-e4-c4-e4-c4----c4-c4 ------e4--f4-e4
e3-c3-e3-c3-e3-c3----c3-c3-------C---------

E1

------------e4------f4--------e4/b4—c5
----------- C -------F--------C---------
Oíd, mortales, el grito sagrado:
-----d4---------e4---
-----Dm---G-----C---
¡libertad, libertad, libertad!
 ----------e4----a4-a4---g4---c5-d5-b4
-----------C-----Dm-D----G--------------
Oíd el ruido de rotas cadenas,
---------a4-------c5-a4-----g4-c5-d5
---------Am-------C—Am------G--------
ved en trono a la noble igualdad.
--------d#4-------f4-d#4------d4
--------Cm--------------------G-
Ya su trono dignísimo abrieron
---------c4-b3---c4-d4----g3---f3
---------C-G-----C--Am----G--
las provin-cias uni-das del sud,
       e4----------f4------------------
-----C-------------F-------Am-----F--
y los libres del mundo responden:
          e4---                c5
----------C-------F----------C
al gran pueblo argentino salud,
         e5--------f5------g5-------a5
---------C---------F-------Am--------F
Y los libres del mundo responden:
          e4--f4--e4------d4—c4
----------C-------F-----------C
al gran pueblo argentino salud.

 e4-d4-c4-c4-c4-c4  (x2)   f4-e4-d4-d4-d4-d4 (x2)
c3                         c3

g4-f4-e4-e4-e4-e4 (x2)    a4-g4-f4-f4-f4-f4    b4-a4-g4-g4-g4-g4-----c5
c3                        c3                   c3                    c3

g4 (x5)

g4-f4-d4-b3-c4
g3-f3-d3-b2-c3

g4 (x5)

g4-f4-d4-b3-c4
g3-f3-d3-b2-c3

e4-c4-e4-c4-e4-c4----c4-c4 -----------------
e3-c3-e3-c3-e3-c3----c3-c3-------C---------

               e4-------f4-g4----------------------d4
               g3/c4-------a3/c4------------------
SEAN ETERNOS       LOS LAURELES
           e4---f4-g4-f4--e4--f4--e4---d4
-----------Dm---------G---C---------
QUE SUPIMOS      CONSEGUIR,
-----------e4-------f4-g4----------------------d4
------------C----------F------------------
SEAN ETERNOS       LOS LAURELES
            e4---f4-g4-f4--e4--f4--e4---d4
------------Dm---------G---C
QUE SUPIMOS      CONSEGUIR....
           e4----------f4-----------e4—g4-f#4-g4-a4-g4-c5
-----------Em----------F-
CORONADOS DE GLORIA VIVA-AAAA-AMOS,
       e4----------------f4-----------------e4
-------C-----------------F-----------------C-----
O JUREMOS CON GLORIA MORIR.
       e4----------------f4-----------------e4
-------C-----------------F-----------------C----
O JUREMOS CON GLORIA MORIR.
       e4----------------f4-----------------e4
-------C-----------------F-----------------C----
O JUREMOS CON GLORIA MORIR.
       e4----------------f4-----------------e4
-------C-----------------F------------------C----
O JUREMOS CON GLORIA MORIR.


Esta mas o menos, no?

Notas:
Algunos acordes estas en 1° o 2° inversión, así que quedan:

C: e-g-c
G: d-g-b
Am: e-a-c
D: d-f#-a
Dm: d-f-a
Cm: d#-g-c

Si no entendes, me escribis.

Dedicado a todas las personas que de alguna forma o manera,
hacen algo bueno por la gente de mi país.
Como fueron en su época José de San Martín, Manuel Belgrado,
Martín Miguel de Güemes, Juan Manuel de Rosas. Y las tantas
personalidades como Milstein y Favaloro....
Y no dejemos nunca de putear a
las dictaduras militares, a Sarmiento y a Menem.

El material contenido en esta página es para exclusivo uso privado y con propósito meramente educativo, se prohibe su reproducción y uso con fines comerciales