Dos edificios dorados

Acordes de la canción 'Dos edificios dorados' de Charly García

Versiones de esta canción: Letra y acordes - Tablatura para bajo (bass tab)

Intro: Dm - Em/D - Dm

Dm    Em/D   Dm   riff
Tengo que seguir
Dm     Em/D   Dm  riff
lo que yo empecé.
Dm  Em/D    Dm    riff
Ya estoy cansado
Dm   Em/D    Dm
pero ya lo haré.



Gm           F              Dm  Em/D  Dm
 Tengo mis fuerza basada aquí.
A5
 Pronto verán
Bb5       C5            Dm  Em/D  Dm
 resurrecciones en el mundo.


Inter como intro


Cuando pase aquí
oirás mi voz.
Les diré mil cosas
del mundo de hoy.


Tengo mis fuerza…

Inter


Dm
Basta de mentira, basta de dolor,
basta de ignorantes, dame un poquito de amor,
              Dm  Em/D  Dm
yeah, yeah, yeah


Tengo que seguir...

Pronto verán...

Inter

Tengo mis fuerza basada aquí.

Pronto verán...

Tengo que seguir, tengo que seguir...




Riff
e-----------------
B-----------------
G-----------------
D-------3---------
A---3-5---5-3-5---
E-5---------------



Em/D: xx0453
Versión 2 - Dos edificios dorados (Tablatura para bajo (bass tab))
Esta versión de bajo esta basada en la linea de bajo
tocada por José Luis Fernandez en vivo para el
Álbum de Charly: "Música del Alma"

0:00

   Dm        Em/D         Dm

g|------------------------------------------------
d|------------------------------------------------
a|--5-----------5-5---------5---------------------
e|------------------------------------------------

repite hasta

0:22

Arranca la letra:

    Dm     Em/D     Dm

g|------------------------------------------------
d|---------------------------------0-3-0----------
a|--5--------5-5-------5-------0-3-------0-3------
e|------------------------------------------------

repite hasta

0:42

                   Gm           F

g|----7/9-7-----------------------------3/5-------
d|--7-------7/5-------------------7-3-3-----3-----
a|--------------5-5-3---------5-8-----------------
e|--------------------5-3-------------------------

       Dm  Em/D   Dm                      Am

g|---------------------------7/9-7----------------
d|-------------------------7--------7-5-------5-7-
a|--3-4-5-----5-5-----5-----------------8-5-8-----
e|------------------------------------------------

                        Gm         F

g|-----------------------------------------3/5-5--
d|--5----------7---7-5-5-------------5-3-3-------3
a|----7------5---5-------5-5-----3-5--------------
e|------8-5------------------3--------------------

1:06 (vuelve a lo que tocaba en 0:00 pero con un
par de arreglos*)

            Dm    Em/D Dm

g|-------------------------------7/9-7------------
d|-----------------------------7-------7-----5----
a|--2-2-3-3-4-4-5----5-5---5-------------5-8---8-5
e|------------------------------------------------

Arreglo 1*

   Dm     Em/D  Dm

g|-----------------------7/9-7--------------------
d|---------------------7-------7-----5------------
a|--5-----5-5----5---------------5-8---8-5--------
e|------------------------------------------------

Arreglo 2*

   Dm    Em/D    Dm

g|-----------------------------7/9-7--------------
d|---------------------------7-------7------------
a|--5-----5-5-----5--------------------8-5--------
e|------------------------------------------------

*los arreglos no están en necesariamente en orden,
lo que se repite en esta parte es básicamente lo
que dice en la tablatura de 0:00 pero de vez en
cuando lo llena con uno de esos dos arreglos

Toca esto hasta

1:38 (repite la parte de 0:42 con unos cambios)

                    Gm           F

g|----7/9-7-------------------------------3/5-----
d|--7-------7-5-7-5-----------------7-3-3-----3---
a|------------------7-5--------5-8----------------
e|----------------------3-------------------------

           Dm         Em/D      Dm

g|------------------------5/7-5-5-----------------
d|--------------------------------7---------------
a|-2-2-3-3-4-4-5----5-8-5-----------5-------------
e|------------------------------------------------

                     Am

g|----7/9-7---------------------------------------
d|--7-------7-5-------5-7-------------------------
a|--------------8-5-8-----------------------------
e|------------------------------------------------

                  Gm                F

g|-------------------------------------------3/5-5--
d|--5----------7-----7-5-5-------------5-3-3-------3
a|----7------5---5-8-------5-5-----3-5--------------
e|------8-5--------------------3--------------------

           Dm         Em/D      Dm

g|------------------------5/7-5-5-----------------
d|--------------------------------7---------------
a|-2-2-3-3-4-4-5----5-8-5-----------5-------------
e|------------------------------------------------

2:04 (parte instrumental hasta 3:54)
repite toda la linea de bajo desde 0:00 hasta
2:04 eventualmente cambiando de orden los
arreglos pero todo sobre la misma base

3:54 el bajo para hasta:

4:34

g|----7/9-7------12-------------------------------
d|--7-------10-9----------------------------------
a|------------------10-12-------------------------
e|------------------------------------------------x4

g|----7/9-7------12-------14----------------------
d|--7-------10-9----------------------------------
a|------------------10-12----12-------------------
e|------------------------------------------------

g|----7/9-7------12-------------------------------
d|--7-------10-9----------------------------------
a|------------------10-12-12-12-------------------
e|------------------------------------------------

g|----7/9-7------12-------------------------------
d|--7-------10-9----------------------------------
a|------------------10-12-------------------------
e|------------------------------------------------x2

5:00

g|------------------------------------------------
d|--------12-12/14-12-----------------------------
a|-----12-------------10-11-12--------------------
e|--10--------------------------------------------x4

5:06

g|------------------------------------------------
d|------------------------------------------------
a|--10-12---------------10-12---------------------
e|--------10---10-11-12---------------------------x3

g|------------------------------------------------
d|-------------12/14-12---------------------------
a|--10-12---------------12------------------------
e|--------10---------------10---------------------

5:13

g|------------------------------------------------
d|------------------------------------------------
a|- ---12-----12-12-------------------------------
e|--10----10--------------------------------------x2

g|------------------------------------------------
d|------------------12----------------------------
a|- ---12-----12-12-------------------------------
e|--10----10--------------------------------------

El material contenido en esta página es para exclusivo uso privado y con propósito meramente educativo, se prohibe su reproducción y uso con fines comerciales