No puedo olvidarte

Tabs, letra y acordes de 'No puedo olvidarte' por Airbag

Versiones disponibles: Letra y acordes - Tablatura para guitarra (TAB)

C                    Am
Hoy yo no puedo olvidar
                        Em
las noches que junto a ti
                      F  G
perdia el tiempo sentado
C                      Am
Me esta costando entender
                  Em
y busco alguna razon
                F    G
para poder olvidarte
Em             Am    G          C      F  G
Vete ya de aqui, sera mucho pedir
C              Am   C              Am
Yo quiero olvidarte, no puedo olvidarte
          Em                  G             F   G
y aunque busques un momento no lo encontraras
C              Am   C              Am
Yo quiero olvidarte, no puedo olvidarte
          Em                  G             F   G
y aunque busques un momento no lo encontraras
C                    Am
Hoy yo no puedo olvidar
                        Em
las noches que junto a ti
                      F  G
perdia el tiempo sentado
C                      Am
Me esta costando entender
                  Em
y busco alguna razon
                F    G
para poder olvidarte
Em             Am    G          C      F  G
Vete ya de aqui, sera mucho pedir
C              Am   C              Am
Yo quiero olvidarte, no puedo olvidarte
          Em                  G             F   G
y aunque busques un momento no lo encontraras
C              Am   C              Am
Yo quiero olvidarte, no puedo olvidarte
          Em                  G             F   G
y aunque busques un momento no lo encontraras
(solo guitarra)
Em             Am    G          C      F  G
Vete ya de aqui, sera mucho pedir
C              Am   C              Am
Yo quiero olvidarte, no puedo olvidarte
          Em                  G             F   G
y aunque busques un momento no lo encontraras
C              Am   C              Am
Yo quiero olvidarte, no puedo olvidarte
          Em                  G             F   G
y aunque busques un momento no lo encontraras
    C
aaaaaa
Versión 2 - No puedo olvidarte (Tablatura para guitarra (TAB))
Hola, este es un tomazo, tiene un par de fantasías que lo hacen
Interesante. La afinación de la guitarra es Eb, no sean vagos, aflojen
Las cuerdas un semitono, suena mejor. Mi mail es alevoodoo@ovi.com

INTRO:
  A5   B5 A5  F#5  A5    B5 A5 C#5  D5   E5 (rasgueando)
E-------------------------------------------------------------------
B------------------------------------------------------------2-2*---
G--2----4--2-------2-----4--2--6----7----9----x2-------------2------
D--2----4--2---4---2-----4--2--6----7----9-------------------2------
A--2----2--2---4---2-----2--2--4----5----7-------------------0------
E--------------2----------------------------------------------------
(Vuelve a A y hace varios armónicos de púa en *)

A5                  F#5
Hoy yo no puedo olvidar
                       C#5
Las noches que junto a ti
                    D5   E5*
Perdía el tiempo sentado
A5                    F#5
Me esta costando entender
                 C#5
Y busco alguna razón
                D5  E5*
Para poder olvidarte

C#5           F#5   E5         A5  (RIFF) D5 E5
Vete ya de aquí, será mucho pedir

F#5*    (RIFF 2)   D5 E5* F#5*          (RIFF 2)
Yo quiero olvidarte,       no puedo olvidarte
          A5                E5             D5 E5*   D5 E5*
Y aunque busques un momento no lo encontraraaaaaas
F#5*    (RIFF 2)   D5 E5* F#5*          (RIFF 2)
Yo quiero olvidarte,       no puedo olvidarte
          A5                E5             D5 E5*
Y aunque busques un momento no lo encontraraaaaaas

A5                  F#5
Hoy yo no puedo olvidar
                       C#5
Las noches que junto a ti
                    D5   E5*
Perdía el tiempo sentado
A5                    F#5
Me esta costando entender
                 C#5
Y busco alguna razón
                D5  E5*
Para poder olvidarte
C#5           F#5   E5         A5  (RIFF) D5 E5*
Vete ya de aquí, será mucho pedir
F#5*    (RIFF 2)    D5 E5* F#5*          (RIFF 2)
Yo quiero olvidarte,        no puedo olvidarte
          A5                E5             D5 E5*   D5 E5*
Y aunque busques un momento no lo encontraraaaaaas
F#5*    (RIFF 2)   D5 E5* F#5*          (RIFF 2)
Yo quiero olvidarte,       no puedo olvidarte
          A5                E5             D5 E5
Y aunque busques un momento no lo encontraraaaaaas

SOLO
E--------------------------------------------------------------------------
B--14’’14’’14’’14h15p14p12----------------12p---------------------/15~-/17~
G--------------------------14’’14’’14’’14h---14p13p------------------------
D--------------------------------------------------14’’14’’14’’------------
A--------------------------------------------------------------------------
E--------------------------------------------------------------------------
 //esta parte es muy rápido, no estoy seguro pero es dentro de estas digit.
E-----17^r~---19p17p15/14h17p15p14p---15p14p------14h-------------------
B----------------------------------17h------17p15p---17p15p14p17h15p14p-
G-----------------------------------------------------------------------
D-----------------------------------------------------------------------
A-----------------------------------------------------------------------
E-----------------------------------------------------------------------

E---------------------------------------------------------------
B-----15p14p----------17p15p14p---15p14p------------------------
G--16h------16p14h-------------16h------16p14h16^-16^~---------
D---------------------------------------------------------------
A---------------------------------------------------------------
E---------------------------------------------------------------

C#5           F#5   E5         A5  (RIFF) D5 E5*
Vete ya de aquí, será mucho pedir
F#5*    (RIFF 2)    D5 E5* F#5*           (RIFF 2)
Yo quiero olvidarte,        no puedo olvidarte
          A5                E5             D5 E5*   D5 E5*
Y aunque busques un momento no lo encontraraaaaaas
F#5*    (RIFF 2)   D5 E5* F#5*           (RIFF 2)
Yo quiero olvidarte,       no puedo olvidarte
          A5                E5             D5 E5*
Y aunque busques un momento no lo encontraraaaaaas

 RIFF
    A5 B5  (el B5 no lo hace en el primero)
E-----------------------------------------------------
B-----------------------------------------------------
G---2--4----------------------------------------------
D---2--4---0~---2~---4~---/7~--6~----(4~)---(2~)------
A---0--2----------------------------------------------
E-----------------------------------------------------
(inicialmente use esto pero no va, sin embargo queda bien.
 Tómenlo como una yapa)
   A5 B5
E-------------------------------------------
B-------------------------------------------
G--2--4----7~--/6~--/4~--/2---/67/67/6~---
D--2--4-------------------------------------
A--0--2----5~--/4~--/2~--/0---/45/45/4~---
E-------------------------------------------

RIFF 2                 acordes   E5*  F#5*
E--------------------------- ------------------
B--------------------------- ------------------
G--------------------------- ----9-----11------
D--------------------------- ----9-----11------
A----12-12p11h12p11p9~------ ----7-----9-------
E--------------------------- ------------------

Referencias:
h: ligado ascendente
p: ligado descendente
^: estirar
^r: estirar y volver
~: vibrato
/: Slide
*: Armónico de púa
‘: tremolo de púa

El material contenido en esta página es para exclusivo uso privado y con propósito meramente educativo, se prohibe su reproducción y uso con fines comerciales