Desesperado

Tabs, letra y acordes de 'Desesperado' por Airbag

Versiones disponibles: Tablatura para guitarra (TAB) - Letra y acordes - Versión 3 - Versión 4

Hola, les dejo un tema que para mi es muy pegadizo. Imposible que
No te guste. Casi, casi poguero. La afinación es Eb, es decir un
Semitono más flojo de lo normal, es fácil, simple, la melodía suena
Sobre los acordes y el solo esta bueno. Mail alevoodoo@ovi.com

        A                        E
Desesperado completamente destrozado
          A                       E
Descontrolado completamente acelerado
         A                            E
Desenfrenado soy como un pájaro encerrado
        A                            B
Y alucinado siento que voy a enloquecer.

      C#                          B
Y se va acabar el mundo y yo sin ti
      C#                          B
Eres como una película que yo ya vi   (suena con melodía sobre acordes)
      C#                      B
Que manera tan absurda de sufrir
      C#                       B
Se me va la vida peleando por ti... peleando por ti.

        A                        E
Desesperado completamente destrozado
          A                       E
Descontrolado completamente acelerado
         A                            E
Desenfrenado soy como un pájaro encerrado
        A                            B
Y alucinado siento que voy a enloquecer.

SOLO (base C# B)
E----------------------------------------------------
B-----------------------------------------------12~--
G----13~~---13~/9h11--9h11p9/8h9p8-/6-/4~---/13~-----
D----------------------------------------------------
A----------------------------------------------------
E----------------------------------------------------

E-----------------------------------
B-----------------------------------
G--13^13~/9h11-9h11p9/8h9p8-/6-/4~--
D-----------------------------------
A-----------------------------------
E-----------------------------------
          //         Rápido
E-----------------------------------------------------------------------
B--/14~---14h16h17p16p14h16p14p---------14~----------------17-----------
G------------------------------16p14h16h-----16^14-16~---16^-16(14)16~--
D-----------------------------------------------------------------------
A-----------------------------------------------------------------------
E-----------------------------------------------------------------------

E---------------------------------------------------------------
B----12---------------------------------------12----------------
G--13^-13(11)13~/--------9~--9-11-9~-----9-11^--11^-11-9h11p9~--
D-------------------9-11--------------11------------------------
A---------------------------------------------------------------
E---------------------------------------------------------------
                       B5
E--------------------------------------
B----------------------4---------------
G--11-9/8h9p8/6/4~-/---4---------------
D----------------------2---------------
A--------------------------------------
E--------------------------------------

        A                        E
Desesperado completamente destrozado
          A                       E
Descontrolado completamente acelerado
         A                            E
Desenfrenado soy como un pájaro encerrado
        A                            B      E
Y alucinado siento que voy a enloquecer.

(Melodía en los párrafos)
    C#                     B
E-------------------------------------------------
B-------------------------------------------------
G-------------------------------------------------
D------------------------------------------------- x2
A--4-6-7-4~---4-6-7-4~-----2-4-6-2~---2-4-6-2~----
E-------------------------------------------------
    C#                      B
E-------------------------------------------------
B-------------------------------------------------
G-------------------------------------------------
D---2-4-6-2~---2-4-6-2~-----0-2-4-0~---0-2-4-0~--- x2
A-------------------------------------------------
E-------------------------------------------------


Referencias:
h: ligado ascendente
p: ligado descendente
^: estirar
^r: estirar y volver
~: vibrato
/: Slide
*: Armónico de púa
‘: tremolo de púa
(): arrastra sin pulsar
Versión 2 - Desesperado (Letra y acordes)
Toda la cancion es sobre esta base... : F-C-F-G

        F                        C
Desesperado completamente destrozado
          F                       C
descontrolado completamente acelerado
         F                            C
Desenfrenado soy como un pajaro encerrado
        F                            G
y alucinado siento que voy a enloquecer

(aca es con un arpegeo de la 4 y 5 cuerda)
      F                           C
Y se va acabar el mundo y yo sin ti
          F                    C
esto es como una pelicula que yo ya vi
       F                      C
que manera tan absurda de sufrir
       F                      C                G
se me va la vida pelando por ti (peleando por ti)
        F                        C
Desesperado completamente destrozado
          F                       C
descontrolado completamente acelerado
         F                            C
Desenfrenado soy como un pajaro encerrado
        F                            G
y alucinado siento que voy a enloquecer
(solo guitarra)
        F                        C
Desesperado completamente destrozado
          F                 C
descontrolado y estoy desperado
         F                            C
Desenfrenado soy como un pajaro encerrado
        F                            G
y alucinado siento que voy a enloquecer
            C
oooooooooooooo
Versión 3 - Desesperado
 hola a todos aca les dejo Los 2 ritmo y el unico corte

desde "00:00" hasta "00:28"

ride          :X--X--X--X--X--X--X--X
redoblante    :------O-----------O---
bombo         :O--O-----O--O---------

este es un corte desde "00:29" hasta "00:31"

redoblante :--Xx----------------
tom 2      :------Xx------------
tom 3      :-----------Xx-------
crash      :-------------------X
ride       :-------------------X

como ven pongo Xx porque son con las dos manos

despues desde "00:32" hasta "01:00"

HI HAT     :X----X----X----X----X----X----X----X
REDOBLANTE :----------O-------O-----------O-----
BOMBO      :O-------------------O--O------------


luego desde "01:01" hasta "01:28"

ride          :X--X--X--X--X--X--X--X
redoblante    :------O-----------O---
bombo         :O--O-----O--O---------

despues desde "01:29" hasta "01:31"

redoblante :--Xx----------------
tom 2      :------Xx------------
tom 3      :-----------Xx-------
crash      :-------------------X
ride       :-------------------X

despues desde "01:32" hasta "02:01"

HI HAT     :X----X----X----X----X----X----X----X
REDOBLANTE :----------O-------O-----------O-----
BOMBO      :O-------------------O--O------------

y despues vuelve hasta que termina

ride          :X--X--X--X--X--X--X--X
redoblante    :------O-----------O---
bombo         :O--O-----O--O---------


listo eso es todo cualquier cosa este es mi email
matias07_920@hotmail.vom
Versión 4 - Desesperado
desde "00s" hasta "28s"

CRASH :X--X--X--X--X--X--X--X | SE
REDO  :------O-----------O--- | REPITE
BOMBO :O--O-----O--O--------- | 14 VECES

VIEN DESPUES DE ESO VIENE UN CORTE BASTANTE SENCILLO

REDO :-*X--------------------------------------------
TOM2 :---------*X------------------------------------
TOM3 :--------------------*X-------------------------
BOMBO:--O-------O----------O------------------------O
RIDE :----------------------------------------------O

LES PONGO ESE ASTERISCO AL LADO DE EL GOLPE PORQUE SIGNIFICA
QUE SE LE PEGA CON LAS DOS MANOS


DESDE "30s " HASTA" 1:00 m"

H-H  :X----X----X----X----X----X----O---X
REDO :----------O-------O----------------
BOMBO:O-------------------O--O-----------

despues sigue lo mismo cahu
CHAU CUALQUIER COSA ENVIENME UN MENSAJE A MATIAS07_920@HOTMAIL.COM

El material contenido en esta página es para exclusivo uso privado y con propósito meramente educativo, se prohibe su reproducción y uso con fines comerciales