All night long

Tabs, letra y acordes de 'All night long' por Airbag

Versiones disponibles: Letra y acordes - Tablatura para guitarra (TAB) - Letra y acordes - Letra y acordes

INTRO E -A (x3)

VERSO 1

      E                 A            D          A
Me escape de alguna prision y todo gira alrededor
             E             A          D
cuando me canse de tu caminar tus piernas largas
        A        B
y algo mas para mi


CORO
                        D    A    E
Quiero lamer tu cuerpo all night long
                      D    A     E
Quiero besar tu boca all night long
                            D  A E
Y aunque no quiera que yo este ahi
        D        A          B
No podras no podras contra mi


INTRO

Vas a notar algo dentro de mi
Ya no consigo producir
Vamos nena ven y calma mi ser
Que tengo ganas de llegar hacia ti


CORO

CORO
                        D    A    E
Quiero lamer tu cuerpo all night long
                      D    A     E
Quiero besar tu boca all night long
                            D  A E
Y aunque no quiera que yo este ahi
        D        A          B
No podras no podras contra mi


(SOLO) con los acordes del coro


CORO
                        D    A    E
Quiero lamer tu cuerpo all night long
                      D    A     E
Quiero besar tu boca all night long
                            D  A E
Y aunque no quiera que yo este ahi
        D        A          B
No podras no podras contra mi
Versión 2 - All night long (Tablatura para guitarra (TAB))
Hola, les dejo el tema que abre el segundo disco de la banda, sin duda
Un notable crecimiento. Es buenísimo, fácil y con mucho ritmo.
El solo parece complicado pero si se animan seguro que pueden.
Como siempre afinado en Eb y dudas alevoodoo@ovi.com

Intro (con wha wha)
    E           A      G   F#   E
E--------------------------------------
B--------------------------------------
G--------------------------------------
D---2--2~-------2~--------------2--2~--
A---2--2~---2-1-0~----5-5--4-4--2--2~--
E---0--0~-------------3-3--2-2--0--0~--

Riff E
E-----------------------
B-----------------------
G-----------------------
D----2------------------
A----2--------2-2-4-2---
E----0--0-3-4-----------

        E                A          D          A
Me escape de alguna prisión y todo gira alrededor
              E             A               D             A        B
Cuando me cruce con tu caminar tus piernas largas y algo más para mi.

                       D    A     E (riff)
Quiero lamer tu cuerpo all night long
                     D    A     E  (riff)
Quiero besar tu boca all night long
                              D  A E  (riff)
Y aunque no quieras que yo este  ahí
       D          A          B
No podrás, no podrás contra mí.

INTRO

           E                  A           D                 A
Va a explotar algo dentro de mi ya no distingo un no de un si
            E              A             D           A        B
Vamos nena ven y calma mi sed que tengo ganas de llegar hacia ti.

                       D    A     E (riff)
Quiero lamer tu cuerpo all night long
                     D    A     E  (riff)
Quiero besar tu boca all night long
                              D  A E  (riff)
Y aunque no quieras que yo este  ahí
       D          A          B
No podrás, no podrás contra mí.

SOLO
E-----------------------------------------------------------------------
B---17~--15~--12~-------------------------------------------------------
G------------------14p12p---12h~---------------12h14p12h14p12h14p12p----
D------------------------14h-----14p12h14~--14h---------------------14h-
A-----------------------------------------------------------------------
E-----------------------------------------------------------------------
E---------------------------------------15’12’14’12’15’12’14’12’15’12’14’
B------------------------------------------------------------------------
G-12h14p12h15p12h14p12p---12p--------------------------------------------
D----------------------14h---14p12h14~-----------------------------------
A------------------------------------------------------------------------
E------------------------------------------------------------------------

E-12’15’12’14’12p----------------------------------------------------12’’
B----------------15p12p----------------------------------12’’14’’15’’----
G----------------------14^12p--------------------12’’14’’----------------
D----------------------------14p12h14~---12’’14’’------------------------
A------------------------------------------------------------------------
E------------------------------------------------------------------------

E-14’’15^-15-14-13-12---17^-17-15-14-----------------
B------------------------------------17-15-14-12-----
G------------------------------------------------14~-
D----------------------------------------------------
A----------------------------------------------------
E----------------------------------------------------


                       D    A     E (riff)
Quiero lamer tu cuerpo all night long
                     D    A     E  (riff)
Quiero besar tu boca all night long
                              D  A E  (riff)
Y aunque no quieras que yo este  ahí
       D          A          B
No podrás, no podrás contra mí.

FINAL CON RIFF DE INTRO

Referencias:
h: ligado ascendente
p: ligado descendente
^: estirar
^r: estirar y volver
~: vibrato
/: Slide
*: Armónico de púa
‘: tremolo de púa
Versión 3 - All night long (Letra y acordes)
corrigo este tema por ke es el unico
de airbag ke me gusta y estaba mal transcribido
AGUANTE CABEZONES !



IMPORTANTE: TODOS LOS ACORDES VAN EN QUINTAS !!!

INTRO:

e|------------------------------------------------------------------------|
B|------------------------------------------------------------------------|
G|-------3-2-1----1-2-1---------3-2-1----1-2-1---------3-2-1--------------|
D|-1-1----------4-------4-1-1----------4-------4-1-1----------------------|
A|------------------------------------------------------------------------|
E|------------------------------------------------------------------------|


      D#                 G#          C#           G#
Me escape de alguna prision y todo gira alrededor
             D#            G#         C#
cuando me canse de tu caminar tus piernas largas
        G#        A#
y algo mas para mi

CORO:
                        C#          G#
Quiero lamer tu cuerpo all night long
                      C#          G#
Quiero besar tu boca all night long

                           C#     G#
Y aunque no quiera que yo este ahi
       B                   A#
No podras no podras contra mi

INTRO:

e|------------------------------------------------------------------------|
B|------------------------------------------------------------------------|
G|-------3-2-1----1-2-1---------3-2-1----1-2-1---------3-2-1--------------|
D|-1-1----------4-------4-1-1----------4-------4-1-1----------------------|
A|------------------------------------------------------------------------|
E|------------------------------------------------------------------------|





MISMOS ACORDES Q LA PRIMERA ESTROFA

vas a notar algo dentro de mi
ya no consigo producir
vamos nena ven y calma mi ser
que tengo ganas de llegar hacia ti


CORO:
                        C#          G#
Quiero lamer tu cuerpo all night long
                      C#          G#
Quiero besar tu boca all night long

                           C#     G#
Y aunque no quiera que yo este ahi
       B                   A#
No podras no podras contra mi

SOLO

CORO:
                        C#          G#
Quiero lamer tu cuerpo all night long
                      C#          G#
Quiero besar tu boca all night long

                           C#     G#
Y aunque no quiera que yo este ahi
       B                   A#
No podras no podras contra mi


                        C#          G#
Quiero lamer tu cuerpo all night long
                      C#          G#
Quiero besar tu boca all night long

                           C#     G#
Y aunque no quiera que yo este ahi
       B                   A#
No podras no podras contra mi



INTRO:

e|------------------------------------------------------------------------|
B|------------------------------------------------------------------------|
G|-------3-2-1----1-2-1---------3-2-1----1-2-1---------3-2-1--------------|
D|-1-1----------4-------4-1-1----------4-------4-1-1----------------------|
A|------------------------------------------------------------------------|
E|------------------------------------------------------------------------|

MUCHAS GRACIAS, ESTA PERFECTA Y ESPERO KE LES SIRVA !
Versión 4 - All night long (Letra y acordes)
hola el tema esta re bueno suerte aguant bon jovi jujuy ledesma

El intro es un poco rapido
INTRO:

6/-0-0-0-6-5-5-3-5-6-5-3-0-0-0-6-5-5

      E                 A            D          A
Me escape de alguna prision y todo gira alrrededor
             E             A          D
cuando me canse de tu caminar tus piernas largas
        A        B
y algo mas para mi

CORO:
                        D          A
Quiero lamer tu cuerpo all night long
                      D           A
Quiero besar tu boca all night long

                            D     A
Y aunque no quiera que yo este ahi
       C                   B
No podras no podras contra mi

INTRO:

6/-0-0-0-6-5-5-3-5-6-5-3-0-0-0-6-5-5


MISMOS ACORDES Q LA PRIMERA ESTROFA

vas a notar algo dentro de mi
ya no consigo producir
vamos nena ven y calma mi ser
que tengo ganas de llegar hacia ti


CORO:
                        D          A
Quiero lamer tu cuerpo all night long
                      D           A
Quiero besar tu boca all night long

                            D     A
Y aunque no quiera que yo este ahi
       C                   B
No podras no podras contra mi


PUNTEO SE LOS debo

CORO:
                        D          A
Quiero lamer tu cuerpo all night long
                      D           A
Quiero besar tu boca all night long

                            D     A       X 2
Y aunque no quiera que yo este ahi
       C                   B
No podras no podras contra mi


INTRO:

6/-0-0-0-6-5-5-3-5-6-5-3-0-0-0-6-5-5


SUERTE AGUANTE BON JOVI

El material contenido en esta página es para exclusivo uso privado y con propósito meramente educativo, se prohibe su reproducción y uso con fines comerciales