Sólo soy una canción

Acordes de la canción 'Sólo soy una canción' de Abel Pintos

Versiones de esta canción: Tablatura para guitarra (TAB) - Letra y acordes - Letra y acordes

INTRODUCCION


   Bm   D    G6           D        A7
e|----------------------0-------0--------0-|
b|-3----7-------12--------7---7----5---5---|
g|-----------------0--------0--------0-----|
D|---4----7-----12---0----0----------------|
A|-2----5----10--------------------0-------|
E|-----------------------------------------|

   Bm   D G6             A
e|--------------------0--0-----0-0---0--|
b|-3----7/12--12---------5-5------------|
g|---------------0-------6---6---5/7----|
D|---4--7/12--12------------------------|
A|-2----5/10--10---10----0--------------|
E|--------------------------------------|


VERSO 1


   Bm   D G6           D        A7
e|------------------0--------0--------0-|
b|-3----7/12-12--------7---7----5---5---|
g|--------------0--------0--------0-----|
D|---4--7/12-12---0----0----------------|
A|-2----5/10-10-----------------0-------|
E|--------------------------------------|

   Bm   D G6             A
e|--------------------0--0-----------0--|
b|-3----7/12--12---------5-5------------|
g|---------------0-------6---6----------|
D|---4--7/12--12---------------7--------|
A|-2----5/10--10---10----0-------0------|
E|--------------------------------------|


Bm D   G6   D        A
Soy la paz, soy dolor
Bm  D    G6      A
solo soy una cancion.
Bm D G6   D        A
Libertad, luna y sol
Bm   D         G6      A
sangre en la herida de Dios.


PRE-ESTRIBILLO


   G               D/A     D
e|-----------------------------------|
b|-------0---0-----------------------|
g|-----0---------0-----0-2---2---0---|
D|---0-----0---0-----0-----0---0---4-|
A|-----------------0-----------------|
E|-3---------------------------------|

   G        G/B      A
e|---------------------------0-------|
b|-------0--------3--------2-----2/5-|
g|-----0--------0--------2-----2-----|
D|---0--------0--------2-------------|
A|----------2--------0---------------|
E|-3---------------------------------|


   G                             D/A  D
A veces te doy amor, a veces te miento
   G              G/B          A
A vecs le clavo espinas al corazón.


VERSO 2


   Bm   D G6           D        A7
e|------------------0--------0--------0-|
b|-3----7/12-12--------7---7----5---5---|
g|--------------0--------0--------0-----|
D|---4--7/12-12---0----0----------------|
A|-2----5/10-10-----------------0-------|
E|--------------------------------------|

   Bm   D G6             A
e|--------------------0--0-----------0--|
b|-3----7/12--12---------5-5------------|
g|---------------0-------6---6----------|
D|---4--7/12--12---------------7--------|
A|-2----5/10--10---10----0-------0------|
E|--------------------------------------|


Bm D   G6   D       A
Soy tu voz, soy tu yo
Bm  D    G6         A
soy el espejo de tu alma.
Bm D G6   D      A
Una  luz, la ra ra
Bm  D     G6          A
soy la tormenta y la calma.


PRE-ESTRIBILLO


   G               D/A     D
e|-----------------------------------|
b|-------0---0-----------------------|
g|-----0---------0-----0-2---2---0---|
D|---0-----0---0-----0-----0---0---4-|
A|-----------------0-----------------|
E|-3---------------------------------|

   G        G/B      A
e|---------------------------0-------|
b|-------0--------3--------2-----2/5-|
g|-----0--------0--------2-----2-----|
D|---0--------0--------2-------------|
A|----------2--------0---------------|
E|-3---------------------------------|


   G                             D/A  D
A veces te doy amor, a veces te miento
   G            G/B          A
A vecs le pongo ALAS al corazón.


ESTRIBILLO


   D           A           Bm
e|-------2-------------0---------------|
b|-----3---3---------2---2-----3-----3-|
g|---2-------2-----2---------------4---|
D|-0-------------2-----------4---4-----|
A|-------------0-----------2-----------|
E|-------------------------------------|

   F#m          G           D       A
e|------------------------------------------0-----|
b|-----2-----2--------0---------3---------2-----2-|
g|---------2--------0-----0---2---2-----2-----2---|
D|---4---4--------0-----0---0---------2-----------|
A|----------------------------------0-------------|
E|-2------------3---------------------------------|

   D           A           Bm
e|-------2-------------0---------------|
b|-----3---3---------2---2-----3-----3-|
g|---2-------2-----2---------------4---|
D|-0-------------2-----------4---4-----|
A|-------------0-----------2-----------|
E|-------------------------------------|

   F#m          G           D       A
e|--------------------------------2---------0-------|
b|-----2-----2--------0---------3---------2-----2/5-|
g|---------2--------0-----0---2---------2-----2-----|
D|---4---4--------0-----0---0---------2-------------|
A|----------------------------------0---------------|
E|-2------------3-----------------------------------|


       D    A
Poque digo tu verdad
Bm   F#m
vivo tu ilusión
G        D        A
solo soy una canción.
      D    A
Sueño como vos soñas
Bm    F#m
canto para vos
G        D        A
solo soy una canción.


SOLO


           Bm D     G6 D          A
e|---5/7-5--------------------------|
b|-7-5/7-5------7-8-7--3-2----------|
g|-------------------------2p0--2---|
D|----------------------------------|
A|----------------------------------|
E|----------------------------------|

           Bm  D       G6   A
e|--------------------------------0-|
b|-------2-3---2-3/5-7----7-7p5-5---|
g|---2-4----------------------------|
D|-4-------4------------------------|
A|--------------------------0-----0-|
E|---------------------------[------|

         Bm      D        G6
e|----10-9-----------------------|
b|-12------10h12-10-7h8p7-7-8-10-|
g|----------------------------9--|
D|-------------------------------|
A|-------------------------------|
E|-------------------------------|

  D       A         Bm   D     G6    A
e|------------------7/10-10/14-14-12-12-|
b|-3-3--2-2-----------------------------|
g|-4-2--2-2----0h2--7/11-11/14-12----12-|
D|---4----2-2---------------------------|
A|--------------------------------------|
E|--------------------------------------|


PRE-ESTRIBILLO


   G               D/A     D
e|-----------------------------------|
b|-------0---0-----------------------|
g|-----0---------0-----0-2---2---0---|
D|---0-----0---0-----0-----0---0---4-|
A|-----------------0-----------------|
E|-3---------------------------------|

   G        G/B      A
e|---------------------------0-------|
b|-------0--------3--------2-----2/5-|
g|-----0--------0--------2-----2-----|
D|---0--------0--------2-------------|
A|----------2--------0---------------|
E|-3---------------------------------|


ESTRIBILLO


   D           A           Bm
e|-------2-------------0---------------|
b|-----3---3---------2---2-----3-----3-|
g|---2-------2-----2---------------4---|
D|-0-------------2-----------4---4-----|
A|-------------0-----------2-----------|
E|-------------------------------------|

   F#m          G           D       A
e|------------------------------------------0-----|
b|-----2-----2--------0---------3---------2-----2-|
g|---------2--------0-----0---2---2-----2-----2---|
D|---4---4--------0-----0---0---------2-----------|
A|----------------------------------0-------------|
E|-2------------3---------------------------------|

   D           A           Bm
e|-------2-------------0---------------|
b|-----3---3---------2---2-----3-----3-|
g|---2-------2-----2---------------4---|
D|-0-------------2-----------4---4-----|
A|-------------0-----------2-----------|
E|-------------------------------------|

   F#m          G           D       A
e|--------------------------------2---------0-------|
b|-----2-----2--------0---------3---------2-----2/5-|
g|---------2--------0-----0---2---------2-----2-----|
D|---4---4--------0-----0---0---------2-------------|
A|----------------------------------0---------------|
E|-2------------3-----------------------------------|


       D    A
Poque digo tu verdad
Bm   F#m
vivo tu ilusión
G        D        A
solo soy una canción.
      D    A
Sueño como vos soñas
Bm    F#m
canto para vos
G        D        A
solo soy una canción.



NOTA: No se si esta correcta este tab
hay armonicos que suenan que confunden
pero mas alla de eso creo que suena bien.
Versión 2 - Sólo soy una canción (Letra y acordes)
la intro y la primera parte de la cancion se toca con cejillas...
(SOL: se toca en el traste numero 10)

Intro:

SIm-RE-SOL-RE-LA
SIm-RE-SOL-LA

SIm  RE SOL
Soy la paz
RE  LA
Soy dolor
SIm  RE  SOL    LA
Solo soy una canción.


SIm RE SOL
Libertad
RE    LA
Luna y sol
SIm    RE    SOL      LA7
Sangre en la herida de Dios



SOL
A veces te doy amor
           RE
A veces te miento
SOL                         LA
A veces le clavo espinas al corazón



SIm  RE SOL
Soy tu voz
RE    LA
Soy tu yo
SIm    RE   SOL       LA
Soy el espejo de tu alma.


SIm RE SOL
Una luz
RE  LA
larala
SIm   RE   SOL        LA
Soy la tormenta y la calma


SOL
A veces te doy amor
         RE
A veces te miento
SOL                        LA
A veces le pongo alas al corazón


       RE       LA
Por que digo tu verdad
SIm      FA#m
Vivo tu ilusión
SOL       RE    LA
Solo soy una canción


      RE     LA
Sueño como vos soñás
 SIm      FA#m
Canto para vos
SOL     RE     LA
solo soy una canción


SOL
A veces te doy amor
           RE
A veces te miento
SOL                        LA
A veces le clavo espinas al corazón


       RE       LA
Por que digo tu verdad
 SIm      FA#m
Vivo tu ilusión
SOL      RE    LA
Solo soy una canción


      RE     LA
Sueño como vos soñás
 SIm     FA#m
Canto para vos
SOL     RE     LA
solo soy una canción


SIm  RE  SOL
Soy la paz
RE   LA
Soy dolor
SIm   RE  SOL     LA
Solo soy una canción....

esta version no es muy diferente
a la del otro colaborador daniel..
solo que agregue una nota que falta,
y que sin ella el arpegio no se escucha
tan bello como lo es.. marketineroz@hotmail.com

Para vos FER.. te amo con toda mi alma!!
Versión 3 - Sólo soy una canción (Letra y acordes)
SIm     SOL 
Soy la paz
RE   LA 
Soy dolor
SIm      SOL      LA 
Solo soy una canción.


SIm  SOL 
Libertad
RE     LA 
Luna y sol
SIm          SOL       LA7
Sangre en la herida de Dios



SOL 
A veces te doy amor
           RE 
A veces te miento
SOL                         LA 
A veces le clavo espinas al corazón



SIm    SOL 
Soy tu voz
RE     LA 
Soy tu yo
SIm      SOL         LA 
Soy el espejo de tu alma.


SIm   SOL 
Una luz
RE   LA 
larala
SIm      SOL          LA 
Soy la tormenta y la calma


SOL 
A veces te doy amor
         SIm
A veces te miento
SOL                         LA7
A veces le pongo alas al corazón


       RE        LA 
Por que digo tu verdad
SIm    FA#m
Vivo tu ilusión
SOL       RE     LA 
Solo soy una canción


      RE      LA 
Sueño como vos soñás
SIm    FA#m
Canto para vos
SOL      RE      LA
solo soy una canción


SOL 
A veces te doy amor
           RE 
A veces te miento
SOL                         LA 
A veces le clavo espinas al corazón


       RE        LA 
Por que digo tu verdad
SIm    FA#m
Vivo tu ilusión
SOL       RE     LA 
Solo soy una canción


      RE      LA 
Sueño como vos soñás
SIm    FA#m
Canto para vos
SOL      RE      LA
solo soy una canción


SIm     SOL 
Soy la paz
RE   LA 
Soy dolor
SIm      SOL      LA 
Solo soy una canción....

El material contenido en esta página es para exclusivo uso privado y con propósito meramente educativo, se prohibe su reproducción y uso con fines comerciales