Revolución

Tabs, letra y acordes de 'Revolución' por Abel Pintos

Versiones disponibles: Tablatura para guitarra (TAB) - Letra y acordes

INTRO:
            SIm                            FA#            SOL
E||-------|------------------------------|----------------------------------|
B||-------|------------------------------|----------------------------------|
G||-------|--------------11--9------9----|----------------------------------|
D||-------|--9-9-9-9-12---------12-------|----------11----------------12----|
A||-------|------------------------------|--9-9-9-9-------10-10-10-10-------|
E||-------|------------------------------|----------------------------------|

  MIm                 LA
------------------------------------------|----------------------------|
------------------------------------------|----------------------------|
------------------------------------------|----------------------------|
----------------------7-7-7-7-11-11-11-11-|--7-7-7--------7-7-7--------|
--7-7-7-7-10-10-10-10---------------------|--5-5-5--------5-5-5--------|
------------------------------------------|----------------------------|


------------------------------|----------------------------------|
------------------------------|----------------------------------|
--------------11--9------9----|----------------------------------|
--9-9-9-9-12---------12-------|----------11----------------12----|
------------------------------|--9-9-9-9-------10-10-10-10-------|
------------------------------|----------------------------------|


----------------------------|------------------------|
----------------------------|------------------------|
----------------------------|----------3----L--------|
--9-9-9---------------------|--4-4-4---4----L--------|
--7-7-7--------7-7-7--------|--2-2-2---4----L--------|
---------------5-5-5--------|----------2----L--------|

DESPUES DEL PRIMER VERSO:

----|----|----|--------------------------------------|
----|----|----|--------------------------------------|
----|----|----|--11-11-11-11-11----------------------|
----|----|----|---9--9--9--9--9----11-11-11-11-11----|
----|----|----|---------------------9--9--9--9--9----|
----|----|----|--------------------------------------|

                                             COMIENZA EL SEGUNDO VERSO
--------------------------------------------|------------------------------|
--------------------------------------------|------------------------------|
--------------------------------------------|----------11------------11----|
--10-10-10-10-10-10-10-10-11-11-11-11-11----|--9-9-9---------9-9-9---------|
---8--8--8--8--8--8--8--8--9--9--9--9--9----|------------------------------|
--------------------------------------------|------------------------------|

----------------------------|--------------------------------------|
----------------------------|--------------------------------------|
----------------------------|--------------------------------------|
----------9------------9----|--------------12----------------12----|
--7-7-7--------7-7-7--------|--10-10-10----------10-10-10----------|
----------------------------|--------------------------------------|


------------------------------|------------------------------|
------------------------------|------------------------------|
------------------------9-----|----------11------------11----|
----------11------11-12-------|--9-9-9---------9-9-9---------|
--9-9-9------9----------------|------------------------------|
------------------------------|------------------------------|


----------------------------|----------------------------------|
----------------------------|----------------------------------|
----------------------------|----------------------------------|
----------9------------9----|--------------12------------11----|
--7-7-7--------7-7-7--------|--10-10-10---------9-9-9----------|
----------------------------|----------------------------------|


---------------------------|
---------------------------|
--11-----------11--11--11--|
---9------------9---9---9--|
---------------------------|
---------------------------|

INTRO OTRA VEZ
VERSO OTRA VEZ
DESPUES SUBE EL TONO do#m

manden mensajes si les queda alguna duda
Versión 2 - Revolución (Letra y acordes)
Am E7 Am E7
Introduccion

      Am                     Dm
Desperte muy temprano a la mañana,
         E7                      Am
todo el peso de la culpa me aplastò.
                              E7
Algo huele a vencido en esta cama,
                                      Am
¿son los años,son las dudas o el rencor?.
         A7                        Dm
Que dificil se me puso al darme cuenta
           B7                    E
que algo nuevo dentro mio despertò,
        Am                      E7
pero bueno,no le temo a los fantasmas,
                              Am  A7
el coraje es un aliado del amor.
        Dm
Y algo para destacar, como vos no hay nadie igual,
                                      Am
es que juntos vivimos momentos incomparables.
        E7
Aunque dude mi razon ,tuyo es mi corazon,
                                              Am  A7
el pecado es la cruz de los dioses y los mortales.
      Dm                 E7
Algo para destacar como vos....

Am E7 Am E7
Musica

Dm                                     Am
Como vos no hay nadie igual, no hay nadie,

                E7  Am  A7
no hay nadie igual

        Dm
Y algo para destacar, como vos no hay nadie igual,
                                       Am
es que juntos vivimos momentos incomparables.
        E7
Aunque dude mi razon ,tuyo es mi corazon,
                                             Am   A7
el pecado es la cruz de los dioses y los mortales.
      Dm                 E7      Am
Algo para destacar como vos....

Am E7                     Am E7
       no hay nadie igual

El material contenido en esta página es para exclusivo uso privado y con propósito meramente educativo, se prohibe su reproducción y uso con fines comerciales