Reevolución

Acordes de la canción 'Reevolución' de Abel Pintos

Versiones de esta canción: Letra y acordes - Tablatura para bajo (bass tab)

Bm               E
Me canse de tropezar
               G             F#
y romperme la cabeza contra la pared.
Bm                E
Y si no lo cambio yo,
                   G
esta historia se repite
         F#        Bm
siempre una y otra vez.

Bm             E
Hay una revolución despertando
      G              F#
en el centro de mi espíritu,
Bm                 E
sin violencia ni dolor.
                    G
No hace falta estar despierto
     F#             Bm
para ver la luz del sol.

Bm
Cuando cae la noche azul
luna llora sobre el mar.
Nadie duerme por aquí,
      G
todos salen a cazar...
      A (Un F# también funciona muy bien)
todos salen a cazar...

Bm          E
Tu poder es sideral,
                       G            F#
lo que viva en tu interior sera tu realidad.
Bm               E
Para bien o para mal
                    G
es tu fe la que sostiene
     F#         Bm
y alimenta tu verdad.

(SUBE UN TONO)

 C#m            F#
Cada uno es especial
                  A          G#
y no existe nadie como vos, como yo.
 C#m              F#
Cada cual en su misión,
                 A
vos haciendo tu camino
      G#           C#m
yo cantando esta canción.

C#m
Cuando cae la noche azul
luna llora sobre el mar.
Nadie duerme por aquí,
               A       B
todos salen a cazar...

F#m               D
Devoramos a otros
                   A
sin creer en nosotros.
                           E
Nuestro instinto animal es así.
F#m                 D
Desafiando lo incierto
                   A
es mi ley tu deseo.
Comencemos ahora,
   G#      G#7
y aquí... así

C#m
Cuando cae la noche azul
luna llora sobre el mar.
Nadie duerme por aquí,
      A            B
todos salen a cazar...

C#m
Cuando cae la noche azul
luna llora sobre el mar.
Nadie duerme por aquí,
      A
todos salen a cazar...
      B
todos salen a buscar...
    C#m
Su amor.

LES MANDO ESTA CANCION DE ABEL PINTOS,
CUALQUIER CONSULTA A MI CORREO cjasalta038@gmail.com

SALUDOS A MIS COMPAÑEROS DEL COLEGIO AMERICA LATINA DE SALTA.
PROMO NIKE 13'!!!! 13-IV-13
Versión 2 - Reevolución (Tablatura para bajo (bass tab))
Intro
G|----------------------------------------|---------------------------------|
D|----------------------------------------|---------------------------------|
A|-------------------------------555--555-|-----------------------------22--|
E|-7777-5555-2222-3333-0000-5555----------|-7777-5555-2222-3333-000-333---2-|

El bajo vuelve a entrar en (0:26)
Final verso 1
A|-22222-------------------|
E|-------22222-11111-22222-|

Verso2
Hay una revolución...                  Sin violencia ni dolor
G|------------------------------------|------------------------------|
D|---44---4---------------------------|---44---4---------------------|
A|-22--22----22---2---55---5---44---4-|-22--22----22---2-----------2-|
E|---------00--00---33--33---22--22---|---------00--00---3333-2222---|

           Estribillo1
Cuando cae...      Todos salen a cazar
G|----------------|---------------|
D|----------------|---------------|
A|-2~---2~---2~---|---------------|
E|----------------|-3-3-33--22222-|

Verso3
Cada uno es especial (sube un tono)
G|------------------------------------|------------------------------|
D|---66---6---------------------------|---66---6---------------------|
A|-44--44----44---4---77---7---66---6-|-44--44-----44--4-----------4-|
E|---------22--22---55--55---44--44---|----------22--22--5555-4444---|

           Estribillo2
Cuando cae... (x2)
G|-------------------|------------------------------------|
D|---6---6/---4---4/-|---6----4----6----------------------|
A|-4---4----2---2----|-4----2----4------7----5---5---5---5|
E|-------------------|----------------5----3---3---3---3--|

Parte C
Devoramos a otros...
G|-------------------------|---------------------------|
D|-------------------------|---------------------------|
A|-------5~----4~-2~-------|-------5~------------------|
E|-2~-0~----4~-------0~-2~-|-2~-0~----4~-5~-5~-4--4--4-|

Otro
A|-44444-|

Orden:
Intro
Final verso1
Verso2
Estribillo1
Intro
Verso2
Verso3
Estribillo2
Parte C
Estribillo2
Otro

Aclaración: No es que haya 2 estribillos con distinta letra, sino que los
marqué así para que se den cuenta que en la segunda parte hace un ritmo
diferente.  La parte c la escribí de la manera simple, sin los arreglos que los
pueden sacar de oído, no son difíciles.
Cualquier duda: kba.77@hotmail.com

Un saludo enorme a toda la promo Reevolución 2012 :)

El material contenido en esta página es para exclusivo uso privado y con propósito meramente educativo, se prohibe su reproducción y uso con fines comerciales