Que te vaya bien

Acordes de la canción 'Que te vaya bien' de Abel Pintos

Versiones de esta canción: Letra y acordes - Tablatura para guitarra (TAB)

Intro: e - 3 - - - - 3-2- - 2-0
       B - - 3 - 3- - - - 3- -

(En esta parte hay que hacer el bajo con las notas graves)
 G            F#m       Em           F#m
Hola, cómo estás, hace mucho no nos vemos
 G             Bm        C               D   (En esta parte toca
Siempre tan igual, para vos no pasa el tiempo. de la 5 a la 3 cuerda)

Intro

 G         F#m       Em          F#m
Dime algo más, es incómodo el silencio,
 G           Bm7          C  D
Yo no tengo mucho que contar

  G                           Am
Se acabó la gloria entre los dos
 G     D            Am7
Y nos dimos por vencidos
      G           D             Am7   Cm
Y si ya no queda nada que decirnos      que te valla bien

Solo

G               D     Am7             Em         G        D Am
G - - - - - - 5/7 - - -7/5 - - - - - - -                          x2
D -5/7 - 9 - - -  - - - -- - - -9 - 9/7 - - -5 - 5/7 - 9/12
  G                           Am
Se acabó la gloria entre los dos
G      D            Am7
Y nos dimos por vencidos
      G           D             Am7
Y si ya no queda nada que decirnos

  G           D               Am7
Se acabó la gloria entre los dos
G     D            Am
Lo tenemos bien sabido
      G           D              Am  Cm
Y si ya no queda nada que decirnos       que te valla bien
             G       D Am7  G D Am
Un beso y adios      ( termina con el mismo solo de guitarra)
Versión 2 - Que te vaya bien (Tablatura para guitarra (TAB))
INTRO:

   G       F#m       Em      Am
e|-3-------2-------|-0-----------------|
b|-----------------|-------------------|
g|-----------------|-------------------|
D|-----------------|-------------------|
A|-5-5-5-5-4-4-4-4-|-2-2-5/7-7-7-7-7-7-|
E|-3-3-3-3-2-2-2-2-|-0-0-3/5-5-5-5-5-5-|

   G       F#m       Em      Am
e|-3-------2-------|-0-----------|
b|-----------------|-------------|
g|-----------------|-------------|
D|-----------------|-------------|
A|-5-5-5-5-4-4-4-4-|-2-2-5/7-7-7-|
E|-3-3-3-3-2-2-2-2-|-0-0-3/5-5-5-|

   G       F#m       Em      Am
e|-7---7-5-------7-|-5-----------------|
b|---8----------8--|-------------------|
g|-----------------|-------------------|
D|-----------------|-------------------|
A|-5-5-5-5-4-4-4-4-|-2-2-5/7-7-7-7-7-7-|
E|-3-3-3-3-2-2-2-2-|-0-0-3/5-5-5-5-5-5-|

   G       F#m       Em      Am
e|-7---7-5-------7-|-5-----------|
b|---8---------8---|-------------|
g|-----------------|-------------|
D|-----------------|-------------|
A|-5-5-5-5-4-4-4-4-|-2-2-5/7-7-7-|
E|-3-3-3-3-2-2-2-2-|-0-0-3/5-5-5-|


VERSO:


   G       F#m       Em      F#m
e|-----------------|-----------------|
b|-----------------|-----------------|
g|-----------------|-----------------|
D|-----------------|-----------------|
A|-5-5-5-5-4-4-4-4-|-2-2-2-2-4-4-4-4-|
E|-3-3-3-3-2-2-2-2-|-0-0-0-0-2-2-2-2-|

   G       Bm        C       D
e|-----------------|-----------------|
b|-----------------|-----------------|
g|-----------------|-----------------|
D|---------4-4-4-4-|-5-5-5-5-7-7-7-7-|
A|-5-5-5-5-2-2-2-2-|-3-3-3-3-5-5-5-5-|
E|-3-3-3-3---------|-----------------|


 G            F#m       Em           F#m
Hola, cómo estás, hace mucho no nos vemos
 G             Bm        C               D
Siempre tan igual, para vos no pasa el tiempo.


INTRO:

   G       F#m       Em      Am
e|-7---7-5-------7-|-5-----------------|
b|---8----------8--|-------------------|
g|-----------------|-------------------|
D|-----------------|-------------------|
A|-5-5-5-5-4-4-4-4-|-2-2-5/7-7-7-7-7-7-|
E|-3-3-3-3-2-2-2-2-|-0-0-3/5-5-5-5-5-5-|

   G       F#m       Em      Am
e|-7---7-5-------7-|-5-----------|
b|---8---------8---|-------------|
g|-----------------|-------------|
D|-----------------|-------------|
A|-5-5-5-5-4-4-4-4-|-2-2-5/7-7-7-|
E|-3-3-3-3-2-2-2-2-|-0-0-3/5-5-5-|



 G         F#m       Em          F#m
Dime algo más, es incómodo el silencio,
 G           Bm7          C  D
Yo no tengo mucho que contar

  G                           Am
Se acabó la gloria entre los dos
 G     D            Am7
Y nos dimos por vencidos
      G           D             Am7   Cm
Y si ya no queda nada que decirnos      que te valla bien

SOLO:
   G       D  Am  Em      G      D Am
e|-----------------------------------|
b|-----------------------------------|
g|-------5/7--7/5--------------------|
D|-5/7-9----------9-------5/7--9/12--|
A|------------------10-7-------------|
E|-----------------------------------|

   G       D  Am  Em      G      D Am
e|-----------------------------------|
b|-----------------------------------|
g|-------5/7--7/5--------------------|
D|-5/7-9----------9-------5/7--9/12--|
A|------------------10-7-------------|
E|-----------------------------------|


 G                           Am
Se acabó la gloria entre los dos
G      D            Am7
Y nos dimos por vencidos
      G           D             Am7
Y si ya no queda nada que decirnos

  G           D               Am7
Se acabó la gloria entre los dos
G     D            Am
Lo tenemos bien sabido
      G           D              Am  Cm
Y si ya no queda nada que decirnos       que te valla bien
             G
Un beso y adios


REPITE ESTRIBILLO SOBRE EL SOLO DE GUITARRA.

NOTA: En las introducciones anote
las notas que hace el teclado, y la
segybda gyutarra. Otra sugerencia pueden
colocar un capo traste en el 5to espacio
y simular el sonido del charango.
Para eso la tocan en tonalidad de D
Tendrian que hacer los acordes del estribillo.
D - Em - D - A - Em
D - A - Em - Gm - D etc...

El material contenido en esta página es para exclusivo uso privado y con propósito meramente educativo, se prohibe su reproducción y uso con fines comerciales