Mi Error

Acordes de la canción 'Mi Error' de Abel Pintos

Versiones de esta canción: Letra y acordes - Letra y acordes - Tablatura para guitarra (TAB)

Abel Pintos la canta en SIm...cualquier cosa ponen el transporte
en el 2do traste y tocan igual como esta aca...


LAm                         FA
Aunque me arrepienta de mi error
SOL                    MIm  MI
no voy a curarme de esta herida
LAm                     REm
que yo mismo abri con un puñal
                   FA                MI
en mi memoria y sangrará el resto de mi vida
REm                       LAm
aunque me arrepienta de mi error
SOL    FA       SI7  MI LAm
ya no puedo verte mas, amor.

Solo en un rincón del corazón
Quedará el recuerdo de aquel día
Cuando me crucé con la frialdad
Y la belleza que vendían esos dos diamantes
Que después lloraron tu dolor
Y se volvieron mi condena, amor.


ESTRIBILLO
LA                   REm
He abrazado todo mi dolor
FA FA#      SOL                  MIm  MI
Viendo que la calma no dará el olvido
LAm                            REm
Siempre vuelve el frió y la humedad
                       FA                   MI
Con la sobras que se esconden en un sueño herido
REm                  LAm
he abrazado todo mi dolor
                    FA  MI LAm
Y ya no puedo verte más, amor.


He pasado el tiempo sin razón
Desde que bebí la ultima gota
Que sobre mis labios derramó
Los cristales astillados de tu alma rota
Como corta el filo del dolor
Y de ya no verte más, amor.

Y lo que me queda por vivir
Queriendo olvidarme lo vivido
no vale la pena si al final
Me persiguen los fantasmas de lo que he perdido
llevo hasta en mi sangre tu dolor
Y ya no puedo verte más, amor.
Versión 2 - Mi Error (Letra y acordes)
Intro: (Em  Bm  F#  Bm)  x2  (F#-Bm)  x2

Bm                   (B)      G   A                       F#m  F#
Aunque me arrepienta de mi error No voy a curarme esta herida
 Bm                        Em
Que yo mismo abrí con un puñal en mi memoria
         G                 F#
y sangrará el resto de mi vida
 Em                        Bm                       G  F#-Bm
Aunque me arrepienta de mi error Ya no puedo verte más, a mor.
                      (B)  G    A                          F#m  F#
Solo en un rincón del corazón Quedará el recuerdo de aquel día
  Bm                         Em
Cuando me crucé con la frialdad
                      G               F#
Y la belleza que vendían esos dos diamantes
 Em                        Bm                       G  F# - Bm
Que después lloraron tu dolor Y se volvieron mi conde  na, amor.

 B                     Em                A                  F#m  F#
He abrazado todo mi dolor Viendo que la calma no dará el olvido
  Bm                             Em                         G
Siempre vuelve el frió y la humedad Con la sobras que se esconden
               F#  Em                    Bm
en un sueño herido he abrazado todo mi dolor
                     G   F#-Bm
Y ya no puedo verte más, a mor.

Solo: (Em  Bm  F#  Bm)  x2  (F#-Bm)  x2

                    (B)    G   A                       F#m  F#
He pasado el tiempo sin razón Desde que bebí la ultima gota
 Bm                       Em                     G                F#
Que sobre mis labios derramó Los cristales astillados de tu alma rota
 Em                      Bm                    G   F#-Bm
Como corta el filo del dolor Y de ya no verte más, a mor.
                  (B)    G    A                       F#m  F#  Bm
Y lo que me queda por vivir Queriendo olvidarme lo vivido      no vale
                Em                       G                      F#
la pena si al final Me persiguen los fantasmas de lo que he perdido
  Em                          Bm                       G   F#-Bm
llevo hasta en mi sangre tu dolor Y ya no puedo verte más, a mor.

Coro
Versión 3 - Mi Error (Tablatura para guitarra (TAB))
INTRODUCCION

               Em
e|-----------|----------------------10-9-|
b|-----------|---------------------------|
g|---------9-|-11-12-11-12-11-12-11------|
D|-9-11-12---|---------------------------|
A|-----------|---------------------------|
E|-----------|---------------------------|

   Bm                 F#7
e|-------------9----|-9--------------------|
b|---------------12-|---12-11--------------|
g|-9/11-9-11-9------|---------12-11-9----9-|
D|------------------|-----------------12---|
A|------------------|----------------------|
E|------------------|----------------------|

   Bm
e|---------------------------|
b|---------------------------|
g|-9/11-9-11-9-11----------9-|
D|-----------------9-11-12---|
A|---------------------------|
E|---------------------------|

   Em
e|-------------------10-9-|
b|------------------------|
g|-11-12-11-12-11-12------|
D|------------------------|
A|------------------------|
E|------------------------|

   Bm                 F#7
e|-------------9----|-------9-------------------------|
b|---------------12-|-11-12---12-11-------------------|
g|-9/11-9-11-9------|---------------12-11-9-----------|
D|------------------|-----------------------12-11-9-8-|
A|------------------|---------------------------------|
E|------------------|---------------------------------|

   Bm   F#7       Bm   F#7   Bm
e|--------------|--------6-|-7------|
b|------------7-|------7---|--------|
g|----------6---|----------|--------|
D|-9------8-----|-9----8---|--------|
A|------9-------|----------|--------|
E|--------------|----------|--------|

VERSO 1

Bm                            G   A                       F#m  F#7
Aunque me arrepienta de mi error No voy a curarme esta herida
 Bm                        Em
Que yo mismo abrí con un puñal en mi memoria
         G                 F#
y sangrará el resto de mi vida
 Em                        Bm                       G  F#7-Bm
Aunque me arrepienta de mi error Ya no puedo verte más, a  mor.


VERSO 2

Bm                         G    A                          F#m  F#7
Solo en un rincón del corazón Quedará el recuerdo de aquel día
  Bm                         Em
Cuando me crucé con la frialdad
                      G               F#
Y la belleza que vendían esos dos diamantes
 Em                        Bm                       G  F#7-Bm
Que después lloraron tu dolor Y se volvieron mi conde  na, amor.


ESTRIBILLO

 B                     Em                A                  F#m  F#7
He abrazado todo mi dolor Viendo que la calma no dará el olvido
  B7                             Em                         G
Siempre vuelve el frió y la humedad Con la sobras que se esconden
               F#  Em                    Bm
en un sueño herido he abrazado todo mi dolor
                     G   F#7-Bm
Y ya no puedo verte más, a   mor.


INTRODUCCION

               Em
e|-----------|----------------------10-9-|
b|-----------|---------------------------|
g|---------9-|-11-12-11-12-11-12-11------|
D|-9-11-12---|---------------------------|
A|-----------|---------------------------|
E|-----------|---------------------------|

   Bm                 F#7
e|-------------9----|-9--------------------|
b|---------------12-|---12-11--------------|
g|-9/11-9-11-9------|---------12-11-9----9-|
D|------------------|-----------------12---|
A|------------------|----------------------|
E|------------------|----------------------|

   Bm
e|---------------------------|
b|---------------------------|
g|-9/11-9-11-9-11----------9-|
D|-----------------9-11-12---|
A|---------------------------|
E|---------------------------|

   Em
e|-------------------10-9-|
b|------------------------|
g|-11-12-11-12-11-12------|
D|------------------------|
A|------------------------|
E|------------------------|

   Bm                 F#7
e|-------------9----|-------9-------------------------|
b|---------------12-|-11-12---12-11-------------------|
g|-9/11-9-11-9------|---------------12-11-9-----------|
D|------------------|-----------------------12-11-9-8-|
A|------------------|---------------------------------|
E|------------------|---------------------------------|

   Bm   F#7       Bm   F#7   Bm
e|--------------|--------6-|-7------|
b|------------7-|------7---|--------|
g|----------6---|----------|--------|
D|-9------8-----|-9----8---|--------|
A|------9-------|----------|--------|
E|--------------|----------|--------|


VERSO 3

Bm                         G   A                       F#m  F#7
He pasado el tiempo sin razón Desde que bebí la ultima gota
 Bm                       Em                     G                F#
Que sobre mis labios derramó Los cristales astillados de tu alma rota
 Em                      Bm                    G   F#7-Bm
Como corta el filo del dolor Y de ya no verte más, a   mor.


VERSO 4

Bm                       G    A                       F#m  F#7 Bm
Y lo que me queda por vivir Queriendo olvidarme lo vivido      no vale
                Em                       G                      F#
la pena si al final Me persiguen los fantasmas de lo que he perdido
  Em                          Bm                       G   F#7-Bm
llevo hasta en mi sangre tu dolor Y ya no puedo verte más, a   mor.

ESTRIBILLO

 B                     Em                A                  F#m  F#7
He abrazado todo mi dolor Viendo que la calma no dará el olvido
  B7                             Em                         G
Siempre vuelve el frió y la humedad Con la sobras que se esconden
               F#  Em                    Bm
en un sueño herido he abrazado todo mi dolor
                     G   F#7-Bm      F#7         Bm
Y ya no puedo verte más, a   mor. e|-----------|----|
                                  b|-----------|----|
                                  g|-----------|----|
                                  D|-4h2-4-2-1-|-0--|
                                  A|-----------|----|
                                  E|-----------|----|

El material contenido en esta página es para exclusivo uso privado y con propósito meramente educativo, se prohibe su reproducción y uso con fines comerciales